Allman Brothers — Midnight Rider

На этой странице Вы можете ознакомиться с 2 версиями подбора аккордов для гитары к песне "Midnight Rider" группы (исполнителя) "Allman Brothers".

#----------------------------------PLEASE NOTE---------------------------------#
#This file is the author's own work and represents their interpretation of the #
#song. You may only use this file for private study, scholarship, or research. #
#------------------------------------------------------------------------------##
Date: Fri, 6 Oct 1995 16:01:50 -1000
From: Harlan L Thompson

MIDNIGHT RIDER- The Allman Brothers

TUNING: D A D G B D

D
I got to run to keep from hiding
D
And I'm bound to keep on riding
D
And I've got one more silver dollar
Gm7
But I'm not gonna let them catch me, no
Am7 D
Not gonna let them catch the midnight rider

I don't own the clothes I'm wearing
And the road goes on forever
And I've got one more silver dollar
But I'm not gonna let them catch me, no
Not gonna let them catch the midnight rider

BRIDGE:
D Am7 Gm7 Am7 Gm7 Am7 Gm Gm7 Gm7addE Gm7 D

I've gone past the point of caring
Some old bed I'll soon be sharing
And I've got one more silver dollar
But I'm not gonna let them catch me, no
Not gonna let them catch the midnight rider

No I'm not gonna let them catch me, no
Not gonna let them catch the midnight rider (repeat both lines 2X)


CHORDS: RIFF: (play riff throughout while strumming D)
D Gm7 Am7 Gm Gm7addE (D)
D -0---3--5---5---3--- --------------|
B -3---3--5---3---5--- --------------|
G -2---3--5---3---3--- --------------|
D -0---5--7---5---5--- -----0-0---0--|
A -0---5--7---5---5--- -0h3-----3----|
D -0---5--7---5---5--- --------------|
Midnight Rider - The Allman Brothers

bass enters at about 0:15


main riff play main riff x3 then this for bridge
G|------------|-------------|
D|------------|----5h7-3----|
A|5---5-3-----|5--5------53-|
E|---5-----134|------------5|

play main riff x6 for verse then this
G|---------------|
D|5--------------|
A|---------------|
E|---3-5-6-8-6---|

For the solo try spicing the main riff up with any improv that comes to you.

at about 2:00 this occurs
(x2) (x1)
G|-----------------|--------------------------|
D|------5------3-5-|------5--5-7-8-108-7-5-3-2|
A|3-5-7----5-7-----|3-5-7---------------------|
E|-----------------|--------------------------|

A tab by Achilles (blue_sincere@hotmail.com)