Allman Brothers — Trouble No More

Trouble No More
by Allman Brothers
Bass Tab
As played by E. Blanchard
(can play on guitar and strum chords only where indicated)


First Part
G-------||------------7-----------------|-----------7-------------------
D---4:--||*--5--7--5-----7--5-----------|--5--7--5-----7--5-------------
A---4:--||*--------------------3--5-----|--------------------3--5-------
E-------||---------------------------5--|--------------------------5----


A A A A A A A A
G---|--------------------|--------------|-----------------|-------------
D---|--------------------|--------------|-----------------|-------------
A---|-----------3--5--3--|--------------|--------3--5--3--|-------------
E---|--0--5--5-----------|--5--5--0--3--|--5--5-----------|--5--5--0----


D D D D A A A A
G------|--------------|--------------|-----------------|----------------
D------|--------------|--------------|-----------------|----------------
A------|--5--5--0--3--|--5--5--0--3--|--------3--5--3--|----------------
E---3--|--------------|--------------|--5--5-----------|--5--5--0--3----



G----||-----------------------------------------------------------------
D---*||-----------------------------------------------------------------
A---*||-----------------------------------------------------------------
E----||-----------------------------------------------------------------




========================================================================
== TABLATURE EXPLANATION ==
========================================================================

---------- ---------- ----t---
----5h8--- Hammeron ----(8)--- Ghost ----6--- Tap
---------- ---------- Note --------
----5p8--- Pulloff ---------- --------

---------- ---------- -----p--
----5/8--- Slide Up -----x---- Dead -----7-- Pop
---------- ---------- Note --s-----
----58--- Slide Down ---------- --5----- Slap

---------- ||------|| Repeat --------
----5~~~-- Vibrato ||*----*|| ---5^--- Bend
---------- ||*----*|| --------
---------- ||------|| --------

---------- ---------- --------
-4:------- Time ---------- --------
-4:------- Signature ---------- --------
---------- ---------- --------

Rhythm:
w = whole note W = dotted whole
h = half note H = dotted half
q = quarter note Q = dotted quarter
e = eighth note E = dotted eighth
s = sixteenth note S = dotted sixteenth
t = 32nd note T = dotted 32nd
x = 64th note X = dotted 64th
^ = triplet

========================================================================
== Created with a demo version of BUCKET O' TAB ==
== tablature creation software for Windows ==
== For more info email gse@his.com ==
========================================================================