Allman Brothers — Whipping Post

На этой странице Вы можете ознакомиться с 2 версиями подбора аккордов для гитары к песне "Whipping Post" группы (исполнителя) "Allman Brothers".

#----------------------------------PLEASE NOTE---------------------------------#
#This file is the author's own work and represents their interpretation of the #
#song. You may only use this file for private study, scholarship, or research. #
#------------------------------------------------------------------------------##
From: mike@honet7.att.com

==========================================================================
WHIPPIN POST

Original music by Gregg Allman
Bass performance by Berry Oakley
Performance on Idlewild South


==========================================================================

INTRODUCTION:
e s s s s e s s s s e s s s s e e
+------------------------+------------------+
|*6:---------------------|5:---------------*|
|*8:---------------------|8:-----------5-3-*|
+----5-5-3-5-3-5-5-3-5-3-+---5-5-3-5-3------+


VERSE:
s e s e s e s e s e s e e s s e 7 s e s e s e s e s e s e e^e^e
+--------------------------------------+-------------------------------+
|*12:-7-7-7-7---------7-7-7-7-5-------*|-7-7-7-7---------7-7-7-7-------|
|* 8:---------------------------7-5-3-*|-------------------------0-3-4-|
+-------------5-5-5-5------------------+---------5-5-5-5---------------+


CHORUS: (Caveat: I'm not sure about the chorus)
Q q e Q e e e e^e^e e^e^e e^e^e e^e^e Q e^e^e Q e^e^e 3 e q Q H
+---------------+-------------------------+-------------------+---------+
|---------------|-------------------------|*---------0-------*|---R-R-R-|
|-5-5-0-5-0-3-4-|-------------------------|*-0-3-4-0---------*|-3-------|
+---------------+-0-0-0-2-2-2-3-3-3-4-4-4-+------------0-3-4--+---------+


BRIDGE:
s e s e s e s e s e s e s e s e s e s e s e s e s e s e s e s e
+---------------------------------+-------------------------2-2-2-2-+
|-------------------------0-0-0-0-|-2-2-2-2-4-4-4-4-5-5-5-5---------|
|-0-0-0-0-2-2-2-2-3-3-3-3---------|---------------------------------|
+---------------------------------+---------------------------------+

s e s e s e s e s e s e s e s e Q Q H e q Q e q Q e q Q e q Q 2
+-4-4-4-4-5-5-5-5-7-7-7-7-9-9-9-9-+-------+--------------+--------------+
|---------------------------------|-------|*-----R-----R-|-----R-----R-*|
|---------------------------------|-0-0-0-|*-0-0---2-2---|-3-3---2-2---*|
+---------------------------------+-------+--------------+--------------+

e q Q
+---------+
|6:---R-R-|
|8:-0-----|
+---------+

==========================================================================

__ Created using the Bass Tab Creator
+|oo|+ by Mario D'Alessio (motcid!marble!dalessio)
+|oo|+
|| NOTES:
||
|| Capital durations are dotted notes
|| (equal to 1.5 times the duration value)
||
|| +----+ +----+
_ || _ |*--*+ = MEASURE |4:--| = TIME
_||_// |*--*+ REPEATS |4:--| SIGNATURES
| [] | +----+ +----+
| || |
/ [] + = TIE ^ = TRIPLET > = BEND
______/ H = HAMMER ON = SLIDE TO FRET R = Rest
P = PULL OFF X = SLIDE TO NOWHERE ~ = Trill
The Allman Brothers - Whipping Post
By:Andrew Mcshan( Guitarguyx182@aol.com)
INTRO
|---------------------------------------|
|---------------------------------------|
|---------------------------------------|
|---------------------------------------|
|-------------------------------3h5-----|
|-55h3-5p3h5-3h5-5p3h5-3h5-5p3h5------5-|

|---------------------------------------|
|-------------------------------5h8-5---|
|-5h7-7-----5h7-7-----5h7-7-----5h7-5---|
|-5h7-7-----5h7-7-----5h7-7-------------|
|---------------------------------------|
|---------------------------------------|
Verse
A Bm C Bm
Ive been run down
Ive been lied to
And I dont know why I let that mean woman make me a fool
She took all my money
Wrecked my new car
And now shes with one of my good time buddies drinking in some cross town bar.

Guitar 2 Plays this during the verse
|-------^----^-----^---^----------------|
|-------5----7-----8--10ph8----7/5------| ^ means Bend
|---------------------------------------|
|---------------------------------------|
|---------------------------------------|
|---------------------------------------|
Pre Chorus
|-------------------------10-10-8-------------------|
|--------------------8-10----------10-8--------------|
|-----------------/9---------------------------------|
|----------------------------------------------------|
|-----------4-5--------------------------------------|
|-5---8----------------------------------------------|
sometimes I feel
|------------------------17-20--20-20-17-20----------|
|------------------17-20-----------------------------|
|----------------------------------------------------|
|-----------5----------------------------------------|
|-5---7-------7-5------------------------------------|
|----------------------------------------------------|
sometimes I feel
Chorus
A
|---------------5--5---------------------|
|---------------5--5-8-5-----------------|
|---------------6----7-5-5-7--5----------|
|---------------7--------5-7--5----------|
|---------------7------------------------|
|---------------5------------------------|
Like I've been tied to the whipping post
A
Oh Lord I feel like I'm dying.
|---------------------------------------|
|---------------------------------------|
|-5h7-7-----5h7-7-----5h7-7-------------|
|-5h7-7-----5h7-7-----5h7-7--------2----|
|----------------------------------2----|
|----------------------------------0----|
Bridge
|-------------------------------------------------10h12p10----|
|-5-------5------------------10p8--------10-12-13-10h12p10-13-|
|-7----5--7-----5-7p5-------------9p7-----9-11-12----------12-|
|------------------------7------------10----------------------|
|-------------------------------------------------------------|
|-------------------------------------------------------------|
Verse 2:
A Bm C Bm
My friends tell me
That I've been such a fool
And I have to stand by and take it, babe all for loving you.
I drown myself in sorrow.
Cause I look at what you've done.
But nothing seems to change. The bad times stay the same, and I can't run.

Pre Chorus
Chorus
Bridge

|---------------------------------------------------------------------|
|---------------------------------------------------------------------|
|---------------------------------------------------------------------|
|---------------------------------------------------5-5-5-5-5-7-7-7-7-|
|-------------------------5-5-5-5-5-7-7-7-7-8-8-8-8-------------------|
|-5-5-5-5-7-7-7-7-8-8-8-8---------------------------------------------|

|-------------------------------------------------5-5-5-5------|
|-------------------------5-5-5-5-6-6-6-6-8-8-8-8--------------|
|-4-4-4-4-5-5-5-5-7-7-7-7--------------------------------------|
|--------------------------------------------------------------|
|--------------------------------------------------------------|
|--------------------------------------------------------------|

Chorus