Amen — Coma America

На этой странице Вы можете ознакомиться с 2 версиями подбора аккордов для гитары к песне "Coma America" группы (исполнителя) "Amen".

-------------------------------------------------------------------------------
COMA AMERICA - Amen
-------------------------------------------------------------------------------

The last tab for this song was completely wrong. This should patch things up at
best. It sounds good, but I wouldn't bet my life on it that it was completely correct...

Tuning: B,E,A,D,G
It can also be played on a 4-string in B,E,A,D

Intro/Verse
G|---------------------------------------------------------------------------|
D|---------------------------------------------------------------------------|
A|---------------------------------------------------------------------------|
E|---------------------------------------------------------------------------|
B|-3-3-----------------------------------------------------------------------|

Verse
G|---------------------------------------------------------------------------|
D|---------------------------------------------------------------------------|
A|---------------------------------------------------------------------------|
E|---------------------------------------------------------------------------|
B|-3-3-6-6-3-3-5-------------------------------------------------------------|

G|---------------------------------------------------------------------------|
D|---------------------------------------------------------------------------|
A|---------------------------------------------------------------------------|
E|-----2-2-------------------------------------------------------------------|
B|-3-3-----3-3-5-------------------------------------------------------------|
(Play this part every 4th time)

Play Riff #1 again when Casey is singing

Chorus
G|---------------------------------------------------------------------------|
D|---------------------------------------------------------------------------|
A|---------------------------------------------------------------------------|
E|-3-2-1-0-------------------------------------------------------------------|
B|---------------------------------------------------------------------------|
(Repeat over and over)
Amen 'Coma America'
Tuning: Dropped D (DADGBE)
PM - Palm Mute
HRM - Natural harmonics on given fret
Intro

|---------|
|---------|
|--8----7-|
|--8----7-|
|--6----5-|
|---------|

Pre-Chorus

|---------------------|----------------------|
|---------------------|----------------------|
|--------8----------7-|-------10----------12-|
|--------8----------7-|-0--0--10----0--0--12-|
|--------6----------5-|-0--0---8----0--0--10-|
|--0--0-------0--0----|-0--0--------0--0-----|

Verse

1 - 7 8
|----------|------------|
|----------|------------| The 3rd time the verse
|----------|------------| is played in the song,
|--0--0--1-|-0--5--8--8-| fool around with harmonics
|--0--0--1-|-0--5--8--8-| on the 2nd and 3rd fret
|--0--0--1-|-0--5--8--8-|
PM - - -

Chorus

Which time each part is played:
1 2 3 5 6 7 4 8
|--------------|------------|------------|
|--------------|------------|------------|
|--------------|------------|------------|
|--6--5--3--0--|-6--6--6--6-|-6--5--6--8-|
|--6--5--3--0--|-6--6--6--6-|-6--5--6--8-|
|--6--5--3--0--|-6--6--6--6-|-6--5--6--8-|
HRM - - -

i think thats pretty much it i'm not sure whether there are extra parts for each guitar or
if they play the same stuff

John welsh Wiggy_welsh@yahoo.co.uk