Amen — Justified

На этой странице Вы можете ознакомиться с 2 версиями подбора аккордов для гитары к песне "Justified" группы (исполнителя) "Amen".

Amen
Justified
We Have Come For Your Parents
Tabbed by MattW

G|-------------------------------------------------------|
D|-------------------------------------------------------|
A|-------5---------------------5-----3333-7777-----------|
D|---0-0---343-0-110-x3----0-0---0-0---------------------|

G|-------------------------------------------------------|
D|-------------------------------------------------------|
A|-------------------------------------------------------|
D|---2---3----0----6-------------------------------------|

G|-------------------------------------------------------|
D|-------------------------------------------------------|
A|-------------------------------------------------------|
D|---3-5-3-5-6-------------------------------------------|

G|----------------------------------------------------------------|
D|----------------------------------------------------------------|
A|----------------------------------5-555555555555555555555555555-|
D|---3-33333333333--2-222222222222--------------------------------|

G|-------------------------------------------------------|
D|-------------------------------------------------------|
A|-------------------------------------------------------|
D|---6-0--0-0-0-0-6-0------------------------------------|
Amen – Justified

Intro
E|--------------------------------------------------
B|--14-14-14-14-14-14-14-14-14-14-14-14-14-14-14-14-
G|--x--x--x--x--x--x--x--x--x--x--x--x--x--x--x--x--
D|--11-11-11-11-11-11-11-11-11-11-11-11-11-11-11-11-
A|--------------------------------------------------
D|--------------------------------------------------

Gtr 1
E|-------------------------------------------------------
B|--15--17-17-17-17-17-17-17-17-17-17-17-17-17-17-17-17--
G|--x---x--x--x--x--x--x--x--x--x--x--x--x--x--x--x--x---
D|--12--14-14-14-14-14-14-14-14-14-14-14-14-14-14-14-14--
A|-------------------------------------------------------
D|-------------------------------------------------------
Gtr 2
E|-------------------------------------------
B|-----------17b-17b-17b-17b-17b-17b-17b-17b-
G|-----------16b-16b-16b-16b-16b-16b-16b-16b-
D|-------------------------------------------
A|-------------------------------------------
D|-------------------------------------------

VERSE
E|------------------------------------------------------------------
B|------------------------------------------------------------------
G|------------------------------------------------------------------
D|------4---------------4---------------4---------------4--5-5--7-7-
A|---------------------------------------------------------3-3--5-5-
D|--2-0---0h2--0-0--2-0---0h2--0-0--2-0---0h2--0-0--2-0-------------

E|----------------------------------
B|----------------------------------
G|----------------------------------
D|------4---------------4-----------
A|----------------------------------
D|--2-0---0h2--0-0--2-0---0h2--0-0--

E|------------------------------------------------------------------
B|------------------------------------------------------------------
G|------------------------------------------------------------------
D|------4---------------4---------------4---------------4--5-5--7-7-
A|---------------------------------------------------------3-3--5-5-
D|--2-0---0h2--0-0--2-0---0h2--0-0--2-0---0h2--0-0--2-0------------- x2

Bridge
E|------------------------------------------------
B|------------------------------------------------
G|------------------------------------------------
D|--2---3---0---7-----2---3---0---7-----2-3-2-3-5-
A|--2---3---0---7-----2---3---0---7-----2-3-2-3-5-
D|--2---3---0---7-----2---3---0---7-----2-3-2-3-5-

Chorus
Gtr 1
E|--------------------------------------------------
B|--------------------------------------------------
G|--------------------------5-5-5-5-5-5-5-5-5-5-5-5-
D|--2-2-2-2-2-2-0-0-0-0-0-0-5-5-5-5-5-5-5-5-5-5-5-5-
A|--2-2-2-2-2-2-0-0-0-0-0-0-3-3-3-3-3-3-3-3-3-3-3-3-
D|--2-2-2-2-2-2-0-0-0-0-0-0-------------------------

E|-------------------------------------------------
B|-------------------------------------------------
G|--------------------------5-5-5-5-5-5------------
D|--2-2-2-2-2-2-0-0-0-0-0-0-5-5-5-5-5-5--2-3-2-3-5-
A|--2-2-2-2-2-2-0-0-0-0-0-0-3-3-3-3-3-3--2-3-2-3-5-
D|--2-2-2-2-2-2-0-0-0-0-0-0--------------2-3-2-3-5-

Gtr 2
E|---------------
B|---------------
G|--2-3-2-0-2-0--
D|---------------
A|---------------
D|---------------x7

Verse
E|----------------------------------
B|----------------------------------
G|----------------------------------
D|------4---------------4-----------
A|----------------------------------
D|--2-0---0h2--0-0--2-0---0h2--0-0--

E|------------------------------------------------------------------
B|------------------------------------------------------------------
G|------------------------------------------------------------------
D|------4---------------4---------------4---------------4--5-5--7-7-
A|---------------------------------------------------------3-3--5-5-
D|--2-0---0h2--0-0--2-0---0h2--0-0--2-0---0h2--0-0--2-0-------------x2

Bridge (same as before)

Chorus
Gtr 1
E|--------------------------------------------------
B|--------------------------------------------------
G|--------------------------5-5-5-5-5-5-5-5-5-5-5-5-
D|--2-2-2-2-2-2-0-0-0-0-0-0-5-5-5-5-5-5-5-5-5-5-5-5-
A|--2-2-2-2-2-2-0-0-0-0-0-0-3-3-3-3-3-3-3-3-3-3-3-3-
D|--2-2-2-2-2-2-0-0-0-0-0-0-------------------------x3

E|--------------------------------------
B|--------------------------------------
G|--------------------------5-5-5-5-5-5-
D|--2-2-2-2-2-2-0-0-0-0-0-0-5-5-5-5-5-5-
A|--2-2-2-2-2-2-0-0-0-0-0-0-3-3-3-3-3-3-
D|--2-2-2-2-2-2-0-0-0-0-0-0-------------

Gtr 2
E|---------------
B|---------------
G|--2-3-2-0-2-0--
D|---------------
A|---------------
D|---------------x8

E|--17-16-17-15-17-15—17-
B|--x--x--x--x--x--x--x--
G|--14-15-14-12-14-12-14-
D|-----------------------
A|-----------------------
D|-----------------------
Play each chord six times

Interlude
Gtr 1
E|-------------
B|-------------
G|-------------
D|--2-3-2-3-5--
A|--2-3-2-3-5--
D|--2-3-2-3-5-- x4
Gtr 2
E|-----------------------------------------
B|-14b-14b-14b-14b-14b-15b-15b-15b-15b-15b-
G|-13b-13b-13b-13b-13b-14b-14b-14b-14b-14b-
D|-----------------------------------------
A|-----------------------------------------
D|-----------------------------------------x2




Break
E|------------------------
B|------------------------
G|------------------------
D|--2-0---------xxxx-2-0--
A|--2-0---------xxxx-2-0--
D|--2-0---------xxxx-2-0-- x4

E|------------------------
B|------------------------
G|------------------------
D|------4-------xxxx-2-0--
A|--------------xxxx-2-0--
D|--2-0---0h2-0-xxxx-2-0-- x3

E|-------------------
B|-------------------
G|-------------------
D|------4------------
A|-------------------
D|--2-0---0h2-0-2p0-- x4

Chorus – Same as second chorus
Interlude

Outro
E|-------------------
B|-------------------
G|-------------------
D|------4------------
A|-------------------
D|--2-0---0h2-0-2-0-- x5

E|------------------
B|------------------
G|------------------
D|------4--5-5--7-7-
A|---------3-3--5-5-
D|--2-0-------------

Gtr 1
E|-------------
B|-------------
G|-------------
D|--2-3-2-3-5--
A|--2-3-2-3-5--
D|--2-3-2-3-5-- x3
Gtr 2
E|-----------------------------------------
B|-14b-14b-14b-14b-14b-15b-15b-15b-15b-15b-
G|-13b-13b-13b-13b-13b-14b-14b-14b-14b-14b-
D|-----------------------------------------
A|-----------------------------------------
D|-----------------------------------------x1 and a half

Gtr 1
E|---------
B|---------
G|---------
D|--2-3-2--
A|--2-3-2--
D|--2-3-2--
Gtr2
E|-------------
B|-15b-15b-15b-
G|-14b-14b-14b-
D|-------------
A|-------------
D|-------------