Amen — Under The Robe

-------------------------------------------------------------------------------
Under The Robe - Amen
-------------------------------------------------------------------------------

Tabbed by:DEMISE
Email: heres_the_poison666@hotmail.com

Tuning: normal
....= strum quite alot of times listen to song to get the strumming

e|----------------------------------------------------------0-0-0-0----------
B|----------------------------------------------------------0-0-0-0----------
G|----------------------------------------------------------0-0-0-0----------
D|---------------------------------------------------------------------------
A|---------------------------------------------------------------------------
E|-0-0-7-0-5-0-0-4-0-3-0-2-0-1-1-1-then-0-0-7-0-5-0-0-4-0-3-7-7-7-7----------

e|---------------------------------------------------------------------------
B|---------------------------------------------------------------------------
G|---------------------------------------------------------------------------
D|-2----3-----0--------------------------------------------------------------
A|-2----3-----0--------------------------------------------------------------
E|-0....1.....-----verse back to intro---------------------------------------