Amen — When A Man Dies A Woman

Amen   'When A Man Dies A Woman'
Tuning: Dropped D (DADGBE)
PM - Palm Mute
Intro
~~~~~
|----------------------------------|------------|
|----------------------------------|------------|
|----------------------------------|------------|
|----------------------------------|-0--3--2--1-|
|----------------------------------|-0--3--2--1-|
|--0-3-3-0-3-3-0-3-3-0-3-3-0-3-3-0-|-0--3--2--1-|


Verse
~~~~~
|----------------------------------|
|----------------------------------|
|----------------------------------|
|----------------------------------|
|----------------------------------|
|--0-3-3-0-3-3-0-3---3-3-0-3-3-0-3-|

Pre-Chorus
~~~~~~~~~~
|---------------------------------|------------------------------------|
|---------------------------------|------------------------------------|
|---------------------------------|------------------------------------|
|--0--1--3--0--0----0--1--6--0--0-|-0--2--3--0--3--5--0--2--3--0--6--5-|
|--0--1--3--0--0----0--1--6--0--0-|-0--2--3--0--3--5--0--2--3--0--6--5-|
|--0--1--3--0--0----0--1--6--0--0-|-0--2--3--0--3--5--0--2--3--0--6--5-|

Chorus
~~~~~~
|------------------------------------------------------------------|
|------------------------------------------------------------------|
|------------------3-3-3-3-3-3-3-3-----------------5-5-5-5-7-7-7-7-|
|------------------------------------------------------------------|
|------------------1-1-1-1-1-1-1-1-----------------3-3-3-3-5-5-5-5-|
|--0-0-0-0-0-0-0-0-----------------1-1-1-1-1-1-1-1-----------------|