America — All My Life

INTRO:

E9 F#m/E
--------------0---------- --------------2----------- --------------4-------
--------------0--------0- --------------2--------2-- --------------2-------
-----------1--------1---- -----------2--------2----- -----------4--------4-
--------4--------4------- --------4--------4-------- --------4--------4----
-----2------------------- -----2-------------------- -----2----------------
--0---------------------- --0----------------------- --0-------------------

VERSE:
All my life w/out a doubt i...
All the things...
E9 F#m(/E)
-------------2---------- --------------0---------- --------------2----------
-------------2--------2- --------------0--------0- --------------2--------2-
----------2--------2---- -----------1--------1---- -----------2--------2----
-------4--------4------- --------4--------4------- --------4--------4-------
----2------------------- -----2------------------- -----2-------------------
-0---------------------- --0---------------------- --0----------------------

all my life now and forever... day i die

A/E Am/E AM7
-----------0--------- -----------0--------- -----------0---------
-----------2------2-- -----------1------1-- -----------2---------
--------2---------2-- --------2---------2-- --------1---------1--
-----2---------2----- ---------------2----- -----2---------2-----
--------------------- -----2--------------- --0------------------
--0------------------ --0------------------ ---------------------

you and i will share (1)

G#m F#m7 CM7
-----------4--------- --------------------- ---------------0---------
-----------4--------- -----------2--------- -----------0------0------
--------4---------4-- --------2---------2-- --------0------------0---
-----4---------4----- -----2---------2----- -----2-------------------
--------------------- --------------------- --3----------------------
--4------------------ --2------------------ -------------------------
CHORUS:
There was a time that i just thought that i
(2)
B7 AM7 B/A
-----------2-------0--- -----------0--------- -----------2---------
----------------2------ -----------2------2-- -----------4------4--
--------0-------------- --------1---------1-- --------4---------4--
-----2----------------- -----2---------2----- -----4---------4-----
--2-------------------- --0------------------ --0------------------
----------------------- --------------------- ---------------------

would lose my mind you came along and then the sun did shine
G#m7 C# F#m
--------------------- ---------------- -----------2---------
-----------4--------- -----------6---- -----------2------2--
--------4---------4-- --------6------- --------2-------2----
-----4---------4----- -----6---------- -----2---------------
--------------------- --4------------- ---------------------
--4------------------ ---------------- --2------------------

(1) (2)
i started on my way i would have pass away
B E E7 B7 D A
-----------2--------- -----------0----------- ----2----- ---2--- ---0-----
-----------4--------- -----------0-------3--- ----0----- ---3--- ---2-----
--------4---------4-- --------1-------------- ----2----- ---2--- ---2-----
-----4---------4----- -----2---------2------- ---------- ---0--- ---2-----
--2------------------ ----------------------- ----2----- ------- ---0-----
--------------------- --0-------------------- ---------- ------- ---------

ADLIB:
Bm A Am
E
--------------------- ------- -------------------- -------
--------------------- ---3--- ------------4---5--- ---5---
-----1---1---2---4--- ------- ----6---6----------- -------
--------------------- ------- -------------------- -------
--------------------- ------- -------------------- -------
--------------------- ------- -------------------- -------

G#m C#m7 F#m B
------------------ --------------------------- ----------------------------
--------------4--- ---4---5------------------- ----------------------------
---4---4---6------ ------------4---1---2---4-- --4---6---2-------1---2-----
------------------ --------------------------- --------------4-----------4-
------------------ --------------------------- ----------------------------
------------------ --------------------------- ----------------------------

CODA:

I want this all my life
E D A E
----0---- ----2---- ----0---- ----0----
----0---- ----3---- ----2---- ----0----
----1---- ----2---- ----2---- ----1----
----2---- ----0---- ----2---- ----2----
--------- --------- ----0---- ----2----
--------- --------- --------- ----0----

submitted by:christian