America — Horse With No Name

На этой странице Вы можете ознакомиться с 3 версиями подбора аккордов для гитары к песне "Horse With No Name" группы (исполнителя) "America".

Horse with no name
America


Em ------ D6/9 ------ Em9 ------ Dmaj9 ------
|||||| |||||| |||||| ||||||
|**||| *||*|| |*|||* |||**|
|||||| |||||| |||||| ||||||

( Yes, the entire song is played in the second fret ! )

I like to strike the base note on a downstroke on the first beat
followed by the bottom four strings. Alternating up and down
on Em and Em9, up only on D6/9 and Dmaj9


Em D6/9
On the first part of the journey
I was lookin at all the life
There were plants and birds and rocks and things
There were sand and hills and rings

The first thing I met was a fly with a buzz
and the sky with no clouds
the heat was hot and the ground was dry
but the air was full of sound

Chorus
Em9 Dmaj9

I've been through the desert on a horse with no name
it felt good to be out of the rain
in the desert you can remember your name
'cause there ain't no one for to give you no pain
la la la la lalala la la la la la


After two days in the desert sun
my skin began to turn red
After three days in the desert fun
I was looking at a river bed
And the story it told of a river that flowed
made me sad to think it was dead

chorus


After nine days I let the horse run free
'cause the desert had turned to sea
there were plants and birds and rocks and things
there were sand and hills and rings
The ocean is a desert with it's life underground
and the perfect disguise above
Under the cities lies a heart made of ground
but the humans will give no love
#----------------------------------PLEASE NOTE---------------------------------#
#This file is the author's own work and represents their interpretation of the #
#song. You may only use this file for private study, scholarship, or research. #
#------------------------------------------------------------------------------#

America
Horse with no name


Intro into verse
g-9-9-9p7---
d---------9-
a-----------
e-----------

Chorus:

Variation 1:
g---------------------------------------
d-2-2-2-2---4-4-----------------.-------
a----------------2-2-2---0-2-4--.-------
e---------------------------------------

Variation 2:
g---------------------------------------
d-2-2-2-2---4-4-----------------.-------
a----------------2-0-2-5--------.-------
e---------------------------------------

Variation 3:
g---------------------------------------
d-2-2-2-2---4-4-----------------.-------
a----------------2-2-2-5--------.-------
e---------------------------------------

Guitar solo:
g-5-7-------------------------------------------------------------------------
d-----5-710---------7-------9-9--------------7-7-----------------------------
a------------7h9-------9---------9h11------11-----7h9-----9-7--------/0-2-0---
e----------------7h9-----9-7----------11-9------------9-7---------------------

play the chorus variations as you like.

After playing the guitar solo you directly have to start with the chorus again!
During chorus and verse you can play the intro part. Just play as you like
or listen how it is played in the song.

I hope it helps, guess itґs pretty close to what you hear.

Chorus variation 1 is taken from tranemule@hotmail.com. Thank you!
The rest is tabbed by myself.
1  -------0--0--------0--0------0----0--0---0------0--0--
2 -------0--0--------0--0------0----0--0---0--0---0--0--
3 -0-----0--0--------0--0------2----2--2---0--0---0--0--
4 -5-----5--5--5-----5------0--0--x----0------5---5-----
5 -7-----7--7--7--7--7------x--x--x----x------7---7-----
6 -0-----0--0--0--0--0------2--2--x----0------0---0-----


1 ----0-----0-----------0-----0---0-----0-----0-----------
2 ----0-----0--0--0-----0--0--0---0-----0-----0--0--0-----
3 -2--2-----2--2--2--2--0--0--0---0--2--2-----2--2--2--2--
4 -0--0--x--0--0--0--0-----5--5------0--0--x--0--0--0--0--
5 -x--x--x-----x-----x-----7--7------x--x--x-----x-----x--
6 -2--2--x-----0-----0-----0--0------2--2--x-----0-----0--


Em D6/9/F# Em
the first thing I met was a fly witha buzz and the sky with

D6/9/F# Em D6/9/F#
no clouds the heat was hot and the ground was dry

Em D6/9/F# Em9
but the air was full of sound I've been thru the desert

d6/9/F# Em9 D6/9/F#
on horse with no name It felt good to get out of the rain

Em9 D6/9/F# Em9
in the desert you can remember your name cause there ain't

D6/9/F#
no one to give you no pain


this guitar tab is crude i apologize thank you for your time