American Head Charge — Just So You Know

На этой странице Вы можете ознакомиться с 4 версиями подбора аккордов для гитары к песне "Just So You Know" группы (исполнителя) "American Head Charge".

Full and complete version

Intro and Pre-chorus ( Heavier pre-chorus is played the same but slower this is when you
find that two is actually there).

G-------------------------------------------------------------------------|
D-------------------------------------------------------------------------|
A-------------------------------------------------------------------------|
E-3-3-3-3-2-4-1-4-6-6-6-6-7-7-7-7-7---------------------------------------|

Repeat the second and third time but with the 6’s as 7’s and the 7’s as 8’s.
Then

G-------------------------------------------------------------------------|
D-------------------------------------------------------------------------|
A-------------------------------------------------------------------------|
E-3-3-3-3-2-4-1-4-8-8-8-8-7-7-7-7-7---------------------------------------|

Verse

G------------------------|
D------------------------|
A------------------------|
E-3-3----3/-1-3-3--------|

Chorus – slide sown from the 7’s at the end of the pre-chorus. Play it and you will understand.

G------------------------------------------------------------------|
D------------------------------------------------------------------|
A------------------------------------------------------------------|
E—1-3-3-3-3-1-3-3-1-3-3-/12-8-8-6-8-8----------------------------|

On second and fourth

E—1-3-3-3-3-1-3-3-1-3-3-/12-8-8-8-6-6-5-5-5-----------
^
Only tap it gently, slide up to it then down to the eight.
Bridge and the bit after ( “Pause, silence…hanging before the drop-off” )

G---------------------------------------------------------------------|
D---------------------------------------------------------------------|
A-3-3-3-3-4-0-4-x3 then-----------------------------------------------|
E-----------------------------0 (let it ring)-------------------------|

G---------------------------------------------------------------------|
D---------------------------------------------------------------------|
A---------------------------------------------------------------------|
E-3-3-3-3-2-4-1-4-x lots----------------------------------------------|
-------------------------------------------------------------------------------
Just So You Know (Single Version) - American Head Charge
-------------------------------------------------------------------------------

Tabbed by:Jimmy Kane

Standard tuning

/= slide up
h= hammer on
pm= palm mute

intro

|-------------------------------------------------------------------------------------|
|------------2222-333-------------2222-333--------------2222-333-------------3333-222-|
|1/3-333-4-4----------1/3-333-4-4-----------1/3-333-4-4----------1/3-333-4-4----------|
|---------6--------------------6---------------------6--------------------6-----------|

verse 1

|---------------------------------------------------------------------------|
|---------------------------------------------------------------------------|
|1h3pm-x4-------------------------------------------------------------------|
|---------------------------------------------------------------------------|

|---------------------------------------------------------------------------|
|------------2222-333-------------2222-333--------------2222-333------------|
|1/3-333-4-4----------1/3-333-4-4-----------1/3-333-4-4---------------------|
|---------6--------------------6---------------------6----------------------|

|---------------------------------------------------------------------------|
|------------3333-2pm-------------------------------------------------------|
|1/3-333-4-4----------------------------------------------------------------|
|---------6-----------------------------------------------------------------|

chorus

|---------------------------------------------------------------------------|
|----------55555-0----------------------------------------------------------|
|-----------------4-3333-3333-1111-0000-x4----------------------------------|
|3333-3333------------------------------------------------------------------|

|---------------------------------------------------------------------------|
|------------2222-333-------------3333-222----------------------------------|
|1/3-333-4-4----------1/3-333-4-4-------------------------------------------|
|---------6--------------------6--------------------------------------------|

verse 2

|---------------------------------------------------------------------------|
|---------------------------------------------------------------------------|
|1h3pm-x4-------------------------------------------------------------------|
|---------------------------------------------------------------------------|

|---------------------------------------------------------------------------|
|------------2222-333-------------2222-333--------------2222-333------------|
|1/3-333-4-4----------1/3-333-4-4-----------1/3-333-4-4---------------------|
|---------6--------------------6---------------------6----------------------|

|---------------------------------------------------------------------------|
|------------3333-2pm-------------------------------------------------------|
|1/3-333-4-4----------------------------------------------------------------|
|---------6-----------------------------------------------------------------|

chorus 2

|---------------------------------------------------------------------------|
|----------55555-0----------------------------------------------------------|
|-----------------4-3333-3333-1111-0000-x4----------------------------------|
|3333-3333------------------------------------------------------------------|

bridge

|-------------------------------------------------------------------------------|
|-------------------------------------------------------------------------------|
|333333-4-4-333333-4-4-333333-4-4-333333-4-4-333333-4-4-333333-4-4-333333-4-4---|
|--------6----------6----------6----------6----------6----------6----------6--0-|

|--------------------------------------------------------------------------------|
|--------------------------------------------------------------------------------|
|3-3-3-4-4-3-3-3-4-4-3-3-3-4-4-3-3-3-4-4-3-3-3-4-4-3-3-3-4-4-3-3-3-4-4-3-3-3-4-4-|
|-------6---------6---------6---------6---------6---------6---------6---------6--|

|--------------------------------------------------------------------------------|
|--------------------------------------------------------------------------------|
|3-3-3-4-4-3-3-3-4-4-3-3-3-4-4-3-3-3-4-4-----------------------------------------|
|-------6---------6---------6---------6------------------------------------------|

chorus 3

|---------------------------------------------------------------------------|
|----------55555-0----------------------------------------------------------|
|-----------------4-3333-3333-1111-0000-x4----------------------------------|
|3333-3333------------------------------------------------------------------|

Please e-mail me with your comments:jimmy_kane1986@yahoo.com

============================================================================================
THESE TABS ARE DONE BY GAZ.A. AND I WAS TOUGHT THIS BY MATT.B (BOZ 666)
E|----------------------------
A|----------------------------
D|----------------------------
G|-0-2-3-5-7-9-12-9-12-7-5-3--
B|----------------------------
E|----------------------------

E|-2-2-2-0-3-3-0-3-6-6-6-6-7-7-7-7--
A|-2-2-2-0-3-3-0-3-6-6-6-6-7-7-7-7--
D|-2-2-2-0-3-3-0-3-6-6-6-6-7-7-7-7-- X4
G|----------------------------------
B|----------------------------------
E|----------------------------------
-------------------------------------------------------------------------------
Just So You Know - American Head Charge
-------------------------------------------------------------------------------

By: Jack Nelson

Play order:
Intro
Verse (no guitar part)
Bridge 1
Chorus
Post chorus riffy bit
Verse (no guitar part)
Bridge 1
Bridge 2
Chorus
Interlude (no guitar)
Bridge 3 (x4)
Chorus

This song may look kinda intimidating with its tuning and length but its
pretty simple and really fun to play, just listen to the song to work out
the wierd timing and go for it! (You might think ive got the chorus wrong
but its the bass that plays the main tune, the chorus is actually boring
guitar wise, so if someone wants to write a bass part for it id be grateful)



Intro

C |--------------------------------------------------------------------------|
G |--------------------------------------------------------------------------|
D#|--------------------------------------------------------------------------|
A#|-0h2-2--2-2-3-0-3--6-6--6--6-7-7-7--0h2-2--2-2-3-0-3--6-6--6--6-7-7-7-----|
F |-0h2-2--2-2-3-0-3--6-6--6--6-7-7-7--0h2-2--2-2-3-0-3--6-6--6--6-7-7-7-----|
A#|-0h2-2--2-2-3-0-3--6-6--6--6-7-7-7--0h2-2--2-2-3-0-3--6-6--6--6-7-7-7-----|

C |--------------------------------------------------------------------------|
G |--------------------------------------------------------------------------|
D#|--------------------------------------------------------------------------|
A#|-0h2-2--2-2-3-0-3--6-6--6--6-7-7-7--0h2-2--2-2-3-0-3--7-7--7--7-6-6-6-----|
F |-0h2-2--2-2-3-0-3--6-6--6--6-7-7-7--0h2-2--2-2-3-0-3--7-7--7--7-6-6-6-----|
A#|-0h2-2--2-2-3-0-3--6-6--6--6-7-7-7--0h2-2--2-2-3-0-3--7-7--7--7-6-6-6-----|

Bridge 1 (I wish your body was not so warm to me)

C |--------------------------------------------------------------------------|
G |--------------------------------------------------------------------------|
D#|--------------------------------------------------------------------------|
A#|-0h2-2--2-2-3-0-3--6-6--6--6-7-7-7--0h2-2--2-2-3-0-3--6-6--6--6-7-7-7-----|
F |-0h2-2--2-2-3-0-3--6-6--6--6-7-7-7--0h2-2--2-2-3-0-3--6-6--6--6-7-7-7-----|
A#|-0h2-2--2-2-3-0-3--6-6--6--6-7-7-7--0h2-2--2-2-3-0-3--6-6--6--6-7-7-7-----|

C |--------------------------------------------------------------------------|
G |--------------------------------------------------------------------------|
D#|--------------------------------------------------------------------------|
A#|-0h2-2--2-2-3-0-3--6-6--6--6-7-7-7--0h2-2--2-2-3-0-3--7-7--7--7-6---------|
F |-0h2-2--2-2-3-0-3--6-6--6--6-7-7-7--0h2-2--2-2-3-0-3--7-7--7--7-6---------|
A#|-0h2-2--2-2-3-0-3--6-6--6--6-7-7-7--0h2-2--2-2-3-0-3--7-7--7--7-6---------|

Chorus (And all it was was something beautiful)

C |--------------------------------------------------------------------------|
G |--------------------------------------------------------------------------|
D#|--------------------------------------------------------------------------|
A#|-7/9999999999999999999999999999999999999999999999999999999999999999-------|
F |-7/9999999999999999999999999999999999999999999999999999999999999999-------|
A#|-7/9999999999999999999999999999999999999999999999999999999999999999-------|

Post chorus riffy bit

C |--------------------------------------------------------------------------|
G |--------------------------------------------------------------------------|
D#|--------------------------------------------------------------------------|
A#|-0h2-2--2-2-3-0-3--6-6--6--6-7-7-7--0h2-2--2-2-3-0-3--7-7--7--7-6---------|
F |-0h2-2--2-2-3-0-3--6-6--6--6-7-7-7--0h2-2--2-2-3-0-3--7-7--7--7-6---------|
A#|-0h2-2--2-2-3-0-3--6-6--6--6-7-7-7--0h2-2--2-2-3-0-3--7-7--7--7-6---------|

Bridge 2 (Screaming bit before the second chorus)

C |--------------------------------------------------------------------------|
G |--------------------------------------------------------------------------|
D#|--------------------------------------------------------------------------|
A#|-5--0-1-3-0/5-3-87-7-7--5-0-1-3-0/5-3-87-7-7--5--0-1-3-0/5-3-87-7-7----|
F |-5--0-1-3-0/5-3-87-7-7--5-0-1-3-0/5-3-87-7-7--5--0-1-3-0/5-3-87-7-7----|
A#|-5--0-1-3-0/5-3-87-7-7--5-0-1-3-0/5-3-87-7-7--5--0-1-3-0/5-3-87-7-7----|

C |--------------------------------------------------------------------------|
G |--------------------------------------------------------------------------|
D#|--------------------------------------------------------------------------|
A#|-5--0-1-3-0/5-3-87-7-7---------------------------------------------------|
F |-5--0-1-3-0/5-3-87-7-7---------------------------------------------------|
A#|-5--0-1-3-0/5-3-87-7-7---------------------------------------------------|

Bridge 3 (Screaming bit before the third chorus)

C |--------------------------------------------------------------------------|
G |--------------------------------------------------------------------------|
D#|--------------------------------------------------------------------------|
A#|-2-2--2--2-3-0-3-2-2--2--2-3-0-3-2-2--2--2-3-0-3-2-2--2--2-3-0-3----------|
F |-2-2--2--2-3-0-3-2-2--2--2-3-0-3-2-2--2--2-3-0-3-2-2--2--2-3-0-3----------|
A#|-2-2--2--2-3-0-3-2-2--2--2-3-0-3-2-2--2--2-3-0-3-2-2--2--2-3-0-3----------|

===============================================================================