American Head Charge — Seamless

На этой странице Вы можете ознакомиться с 2 версиями подбора аккордов для гитары к песне "Seamless" группы (исполнителя) "American Head Charge".

seamless by american head charge
tabbed by jez w
any corrections? send em to :peoplequalsh_t@hotmail.com----------------------------------------------------
----------------------------------------------------
-------------------1-----------------------1--------
2--22222--2--22222---2--22222--3232--22222----------

------------------
------------------
------------------
432--0-3232-6-3232

yeh yeh theres other bits to it, but iv not figured them out yet, so chill!
[intro/verse]Distorted
D|-----------------------------------------------------------------|
A|-----------------------------------------------------------------|
F|-----------------------------------------------------------------|
C|-3----------3--3----------3--3----------3--3---------3---4-------|
G|-3--3-3-3-3-3--3--3-3-3-4-3--3--3-3-3-3-3--3-3-3-3-4-3-3-2-------|
C|-3--3-3-3-3-3--3--3-3-3-4-3--3--3-3-3-3-3--3-3-3-3-4-3-3---------|
p.m.--- p.m.--- p.m.--- p.m.--- -


D|-----------------------------------------------------------------|
A|-----------------------------------------------------------------|
F|-----------------------------------------------------4-----------|
C|-3----------3---3---------3--3----------3--3---------4-----------|
G|-3--3-3-3-3-3-4-3-3-3-3-3-3--3--3-3-3-3-3--3-3-3-3-3-2-----------|
C|-3--3-3-3-3-3-4-3-3-3-3-3-3--3--3-3-3-3-3--3-3-3-3-3-------------|
p.m.--- - p.m.--- p.m.--- p.m.---

[intro gtr.2]Distorted(Let ring)
D|-----------------------------------------------------------------|
A|-----------------------------------------------------------------|
F|-----------------------------------------------------------------|
C|-----------------------------------------------------------------|
G|-9-8----14-8-9-8-4----9-8----14-8-9-8-4----------------------|
C|-----------------------------------------------------------------|

[chorus 1]Distorted
D|-----------------------------------------------------------------|
A|-----------------------------------------------------------------|
F|-----------------------------------------------------------------|
C|-4-3-1-0-1-0-1-0-4-1-1-0-1-0-1-0-4-3-1-0-1-0-1-0-4-1-1-0-1-0-1-0-|
G|-4-3-1-0-1-0-1-0-4-1-1-0-1-0-1-0-4-3-1-0-1-0-1-0-4-1-1-0-1-0-1-0-|
C|-4-3-1-0-1-0-1-0-4-1-1-0-1-0-1-0-4-3-1-0-1-0-1-0-4-1-1-0-1-0-1-0-|
p.m.-----------------------------------------------------------

Let ring
D|-----------------------------------------------------------------|
A|-----------------------------------------------------------------|
F|-----------------------------------------------------------------|
C|-4-------1-0-1-0-4-------1-0-1-0-4-------1-0-1-0-4-------1-0-1-0-|
G|-4-------1-0-1-0-4-------1-0-1-0-4-------1-0-1-0-4-------1-0-1-0-|
C|-4-------1-0-1-0-4-------1-0-1-0-4-------1-0-1-0-4-------1-0-1-0-|

[chorus 2]Distorted
D|-----------------------------------------------------------------|
A|-----------------------------------------------------------------|
F|-----------------------------------------------------------------|
C|-4-3-1-0-1-0-1-0-4-1-1-0-1-0-1-0-4-3-1-0-1-0-1-0-4-1-1-0-1-0-1-0-|
G|-4-3-1-0-1-0-1-0-4-1-1-0-1-0-1-0-4-3-1-0-1-0-1-0-4-1-1-0-1-0-1-0-|
C|-4-3-1-0-1-0-1-0-4-1-1-0-1-0-1-0-4-3-1-0-1-0-1-0-4-1-1-0-1-0-1-0-|
p.m.-----------------------------------------------------------

D|-----------------------------------------------------------------|
A|-----------------------------------------------------------------|
F|-----------------------------------------------------------------|
C|-4-3-1-0-1-0-1-0-4-1-1-0-1-0-1-0-4-3-1-0-1-0-1-0-4-1-1-0-1-0-1-0-|
G|-4-3-1-0-1-0-1-0-4-1-1-0-1-0-1-0-4-3-1-0-1-0-1-0-4-1-1-0-1-0-1-0-|
C|-4-3-1-0-1-0-1-0-4-1-1-0-1-0-1-0-4-3-1-0-1-0-1-0-4-1-1-0-1-0-1-0-|

D|-----------------------------------------------------------------|
A|-----------------------------------------------------------------|
F|-----------------------------------------------------------------|
C|-4-------1-0-1-0-4-------1-0-1-0-4-------1-0-1-0-4-------1-0-1-0-|
G|-4-------1-0-1-0-4-------1-0-1-0-4-------1-0-1-0-4-------1-0-1-0-|
C|-4-------1-0-1-0-4-------1-0-1-0-4-------1-0-1-0-4-------1-0-1-0-|