American Hi Fi — A Bigger Mood

American Hi-Fi, A Bigger Mood.
Tabbed by King Of The Eskimos, kingoftheeskimos@silverchair.org.

Song: A Bigger Mood
Artist: American Hi-Fi
Tabbed by King Of The Eskimos, 6/2/01
Dropped-D Tuning

Intro:
e--------------------------------------------------
B--------------------------------------------------
G--------------------------------------------------
D---5--5-7-5-7-5--3--3-5-3-5-3--1--3--3-3--1-3-----
A---5--5-5-5-5-5--3--3-3-3-3-3--1--1--1-1--1-1-----
D---5--5-5-5-5-5--3--3-3-3-3-3--1--1--1-1--1-1-----
x3

Verse 1:
e--------------------------------------------------
B--------------------------------------------------
G--------------------------------------------------
D---0----------------------------------------------
A---0----------------------------------------------
D---0----------------------------------------------
(let ring)

Fill:
e--------------------------------------------------
B------3--1-----3--1-----3--1------3---------------
G-------2--------2--------2---------2--5-5-x-3-33--
D--0--0-----0--0-----0--0------0--0----5-5-x-3-33--
A--------------------------------------3-3---1-11--
D--------------------------------------------------

Chorus:
e--------------------------------------------------
B--------------------------------------------------
G-------------------3-3-33-------------------------
D--5-5-55--1-1-1-1--3-3-33--3-3-3-3----------------
A--5-5-55--1-1-1-1--1-1-11--3-3-3-3----------------
D--5-5-55--1-1-1-1----------3-3-3-3----------------


e--------------------------------------------------
B--------------------------------------------------
G-------------------3-3-33-------------------------
D--5-5-55--1-1-1-1--3-3-33--3-3-03030--------------
A--5-5-55--1-1-1-1--1-1-11--3-3-03030--------------
D--5-5-55--1-1-1-1----------3-3-03030--------------
PM___

e--------------------------------------------------
B--------------------------------------------------
G-------------------3-3-33-------------------------
D--5-5-55--1-1-1-1--3-3-33--3-3-03030--------------
A--5-5-55--1-1-1-1--1-1-11--3-3-03030--------------
D--5-5-55--1-1-1-1----------3-3-03030--------------
PM___

e--------------------------------------------------
B--------------------------------------------------
G------------------x-----x-----x-----x-------------
D--5-5-55--1-1-1-1-x-3-3-x-3-3-x-3-3-x-3-3--0------
A--5-5-55--1-1-1-1-x-3-3-x-3-3-x-3-3-x-3-3--0------
D--5-5-55--1-1-1-1---3-3---3-3---3-3---3-3--0------

Verse 2:
e--------------------------------------------------
B--------------------------------------------------
G--------------------------------------------------
D------3-----3-33333333------3-----3-33333333------
A--------------33333333--------------33333333------
D--0-0---0-0---33333333--0-0---0-0---33333333------
PM______ PM______

Play “Fill” over this, then play the intro as rhythm for the solo (I couldn’t be bothered to tab a solo part; just improvise, have some fun) This is from memory, so send comments/suggestions and or large sums of money to kingoftheeskimos@silverchair.org
And don’t cheap out and download off the internet! Support this awesome band and buy their CD!

:: Ultimate Guitar Archive ::
http://www.ultimate-guitar.com