American Hi Fi — Another Perfect Day

На этой странице Вы можете ознакомиться с 6 версиями подбора аккордов для гитары к песне "Another Perfect Day" группы (исполнителя) "American Hi Fi".

Hey! I’ve seen the other versions of this tab and wot da hell?????
All I no is that this 1 IS CORRECT!!! So lease enjoy!

Chel

Oh and I put the chord diagrams at the bottom so you ppl cam work it out!!
Just lsten to the song for the rythem!

ENJOY!!

Tuning: Tune down to Eb

Intro:
C Gmaj7/11/B Am G Dsus2 Fmaj7

Verse 1:
C Amadd11 Fmaj7
I'm holding on waiting for your call
G
It's simple but I can't explain this,
C Am Fmaj7
I'm sinking down I feel like I could die
G
I'm falling off I don't know why

Chorus 1:
C C/B Am
I still believe it when you say
G Dsus2
It's another perfect day,
Fmaj7
another perfect day.
C C/B Am
I still believe it when you say
G Dsus2
It's another perfect day,
Fmaj7
another perfect day.

Verse 2:
C Amadd11 Fmaj7
So I might try to leave it all behind
G
I know tomorrows not so bright now,
C Amadd11 Fmaj7
I'll say goodbye cause nothing good can last,
G
You wear and figured you're nowhere fast,
Am Caug/G# Dsus2
And today I don't know how to keep it all inside,
F
But I guess I'll let it slide.

Chorus 2: Same as chorus 1

Instrumental: C C/B Am G
Dsus2 Dsus2/C Dsus2/B G

Middle:
Am Caug/G#
Today I don't know why
Dsus2
I thought that it was real
F
But I guess it's no big deal.

Chorus 3: same as chorus 1

Outro:
C C/B

Am G Dsus2 F
I don't know how________
C C/B Am
I don't know how________
G Dsus2
I don't know how________
F F C
To let it slide

So there you go! i didnt do the solo because ...... err ... no reason jus couldnt
be borthered! oh chord diagrams .. der!!

C Gmaj7/11/B C/B Am G Dsus2 Fmaj7 Amadd11 Caug/G# F Dsus2/C Dsus2/B
e-0---2------------0---0-2--0-----0----0-------X-------1--0-------0-----
B-1---1------------1---1-3--3-----1----5-------1-------1--3-------3-----
G-0---0------------0---2-0--2-----2----6-------1-------2--2-------2-----
D-2---0------------2---2-0--0-----3----0-------2-------3--0-------0-----
A-3---2------------2---0-2--X-----3----X-------X-------3--3-------2-----
E-X---X------------X---X-3--X-----1----X-------4-------1--X-------X-----
Another Perfect Day
American Hi-Fi
Tabbed By: Mike

Intro
|-------------------3-3-3-3-3-3-3-3---0--0--0-0---------------------|
|-1--1-1---1--1-1---0-0-0-0-0-0-0-0---3--3--3-3---------------------|
|-0--0-0---0--0-0---0-0-0-0-0-0-0-0---2--2--2-2---2-2-2-2-2-2-2-2---|
|-2--2-2---0--0-0---0-0-0-0-0-0-0-0---0--0--0-0---3-3-3-3-3-3-3-3---|
|-3--3-3---2--2-2---2-2-2-2-2-2-2-2---------------3-3-3-3-3-3-3-3---|
|-------------------3-3-3-3-3-3-3-3---------------1-1-1-1-1-1-1-1---|

1st Verse
|-------------------0--0--0-0---------------------3-3-3-3-3-3-3-3---|
|-1--1-1---1--1-1---3--3--3-3---------------------0-0-0-0-0-0-0-0---|
|-0--0-0---0--0-0---2--2--2-2---2-2-2-2-2-2-2-2---0-0-0-0-0-0-0-0---|
|-2--2-2---0--0-0---0--0--0-0---3-3-3-3-3-3-3-3---0-0-0-0-0-0-0-0---|
|-3--3-3---2--2-2---------------3-3-3-3-3-3-3-3---2-2-2-2-2-2-2-2---|
|-------------------------------1-1-1-1-1-1-1-1---3-3-3-3-3-3-3-3---|

2nd Verse
|-----------------------------------------|
|-----------------------------------------|
|-------------------------------7-7-7-7---|
|-5-5-5-------------------------7-7-7-7---|
|-5-5-5---7-7--7-7---6-6--6-6---5-5-5-5---|
|-3-3-3---5-5--5-5---4-4--4-4-------------|

Chorus
|-------------------------------------------------------------------------|
|-------------------------------------------------------------------------|
|----------5--5-5---5--5-5---------------------7--7-7---5-5-5-5-5-5-5-5---|
|-3--3-3---5--5-5---5--5-5---7--7-7---5--5-5---7--7-7---5-5-5-5-5-5-5-5---|
|-3--3-3---3--3-3---2--2-2---7--7-7---5--5-5---5--5-5---3-3-3-3-3-3-3-3---|
|-1--1-1---------------------5--5-5---3--3-3------------------------------|

Solo
|-12--------15-12^-----------------------12--------15-12^----------|
|----13-------------13-15--15^-15^-15^------13-------------13-15---|
|-------12-------------------------------------12------------------|
|------------------------------------------------------------------|
|------------------------------------------------------------------|
|------------------------------------------------------------------|

|----------------------------------------------13^-12---|
|-15^-15^-15^--15--13-13-13-13---12-13--15--------------|
|------------------------------------------12-----------|
|-------------------------------------------------------|
|-------------------------------------------------------|
|-------------------------------------------------------|
Okay, first off, the last tab I saw for this was Shite. The Chords were accurate,
but the guy had NO tabbing Skill. I figured even I could do better, so I did. And
I tweaked the solo a little to add to the sound

Artist: American Hi-fi
Song: Another Perfect Day
Tabbed By: ME
Tuning: Drop D D C G F A D

Intro (Acoustic) *
D|--0-0-xx-3-3-xx-0-0-xx-3-3-xx-2-2-2-3-2-2-1-1-1-1-1-1-|
A|--1-1-xx-0-0-xx-2-2-xx-0-0-xx-3-3-3-3-3-3-1-1-1-1-1-1-|
F|.-0-0-xx-0-0-xx-2-2-xx-0-0-xx-2-2-2-2-2-2-2-2-2-2-2-2.|
G|.-2-2-xx-0-0-xx-1-1-xx-0-0-xx-0-0-0-0-0-0-3-3-3-3-3-3.| x2
C|--3-3-xx-2-2-xx-0-0-xx-2-2-xx-x-x-x-x-x-x-3-3-3-3-3-3-|
D|--0-0-xx-3-3-xx-0-0-xx-3-3-xx-x-x-x-x-x-x-1-1-1-1-1-1-|

Verse (Acoustic)
D|--0-0-0-0-0-0-0-0-0--0-0-0-0-0-0-0-0-0--1-1-1-1-1-1-1-1-1--
A|--1-1-1-1-1-1-1-1-1--2-2-2-2-2-2-2-2-2--1-1-1-1-1-1-1-1-1--
F|.-0-0-0-0-0-0-0-0-0--2-2-2-2-2-2-2-2-2--2-2-2-2-2-2-2-2-2--
G|.-2-2-2-2-2-2-2-2-2--1-1-1-1-1-1-1-1-1--3-3-3-3-3-3-3-3-3--
C|--3-3-3-3-3-3-3-3-3--0-0-0-0-0-0-0-0-0--3-3-3-3-3-3-3-3-3--
D|--0-0-0-0-0-0-0-0-0--0-0-0-0-0-0-0-0-0--1-1-1-1-1-1-1-1-1--

D|-3-3-3-3-3-3-3-3-3-|
A|-3-3-3-3-3-3-3-3-3-|
F|-4-4-4-4-4-4-4-4-4.|
G|-5-5-5-5-5-5-5-5-5.| x2
C|-5-5-5-5-5-5-5-5-5-|
D|-5-5-5-5-5-5-5-5-5-|

Chorus (Acoustic)
D|--0-0-xx-3-3-xx-0-0-xx-3-3-xx-2-2-2-3-2-2-1-1-1-1-1-1-|
A|--1-1-xx-0-0-xx-2-2-xx-0-0-xx-3-3-3-3-3-3-1-1-1-1-1-1-|
F|.-0-0-xx-0-0-xx-2-2-xx-0-0-xx-2-2-2-2-2-2-2-2-2-2-2-2.|
G|.-2-2-xx-0-0-xx-1-1-xx-0-0-xx-0-0-0-0-0-0-3-3-3-3-3-3.| x2
C|--3-3-xx-2-2-xx-0-0-xx-2-2-xx-x-x-x-x-x-x-3-3-3-3-3-3-|
D|--0-0-xx-3-3-xx-0-0-xx-3-3-xx-x-x-x-x-x-x-1-1-1-1-1-1-|

Verse (Electric)
D|--------------------------------------------------------
A|--------------------------------------------------------
F|.-5-5-5-5-5-5-5-5-5-------------------------------------
G|.-5-5-5-5-5-5-5-5-5-7-7-7-7-7-7-7-7-7-3-3-3-3-3-3-3-3-3-
C|--3-3-3-3-3-3-3-3-3-7-7-7-7-7-7-7-7-7-3-3-3-3-3-3-3-3-3-
D|--x-x-x-x-x-x-x-x-x-5-5-5-5-5-5-5-5-5-1-1-1-1-1-1-1-1-1-

D|--------------------|
A|--------------------|
F|-------------------.|
G|-5-5-5-5-5-5-5-5-5-.|
C|-5-5-5-5-5-5-5-5-5--|
D|-3-3-3-3-3-3-3-3-3--|

| |Bridge (Acoustic)
|D|-0-0-0-0-0-0-0-0-0--0-0-0-0-0-0-0-0-0--3-3-3-3-3-3-3-3-3
|A|-1-1-1-1-1-1-1-1-1--1-1-1-1-1-1-1-1-1--2-2-2-2-2-2-2-2-2
|F|-2-2-2-2-2-2-2-2-2--0-0-0-0-0-0-0-0-0--3-3-3-3-3-3-3-3-3
|G|-2-2-2-2-2-2-2-2-2--2-2-2-2-2-2-2-2-2--0-0-0-0-0-0-0-0-0
|C|-0-0-0-0-0-0-0-0-0--3-3-3-3-3-3-3-3-3--x-x-x-x-x-x-x-x-x
|D|-0-0-0-0-0-0-0-0-0--0-0-0-0-0-0-0-0-0--x-x-x-x-x-x-x-x-x
| |
|D|-1-1-1-1-1-1-1-1-1~-|
|A|-1-1-1-1-1-1-1-1-1~-|
|F|-2-2-2-2-2-2-2-2-2~-|
|G|-3-3-3-3-3-3-3-3-3~-|
|C|-3-3-3-3-3-3-3-3-3~-|
|D|-0-0-0-0-0-0-0-0-0~-|
| |
| |Bridge (Electric)
|D|--------------------------------------------------------
|A|--------------------------------------------------------
|F|--------------------5-5-5-5-5-5-5-5-5--7-7-7-7-7-7-7-7-7
|G|-7-7-7-7-7-7-7-7-7--5-5-5-5-5-5-5-5-5--7-7-7-7-7-7-7-7-7
|C|-7-7-7-7-7-7-7-7-7--3-3-3-3-3-3-3-3-3--5-5-5-5-5-5-5-5-5
|D|-5-5-5-5-5-5-5-5-5--------------------------------------
| |
|D|--------------------
|A|--------------------
|F|--------------------
|G|-3-3-3-3-3-3-3-3-3~-
|C|-3-3-3-3-3-3-3-3-3~-
|D|-1-1-1-1-1-1-1-1-1~-

Chorus (Acoustic)
D|--0-0-xx-3-3-xx-0-0-xx-3-3-xx-2-2-2-3-2-2-1-1-1-1-1-1-|
A|--1-1-xx-0-0-xx-2-2-xx-0-0-xx-3-3-3-3-3-3-1-1-1-1-1-1-|
F|.-0-0-xx-0-0-xx-2-2-xx-0-0-xx-2-2-2-2-2-2-2-2-2-2-2-2.|
G|.-2-2-xx-0-0-xx-1-1-xx-0-0-xx-0-0-0-0-0-0-3-3-3-3-3-3.| x2
C|--3-3-xx-2-2-xx-0-0-xx-2-2-xx-x-x-x-x-x-x-3-3-3-3-3-3-|
D|--0-0-xx-3-3-xx-0-0-xx-3-3-xx-x-x-x-x-x-x-1-1-1-1-1-1-|

Solo

D|-12-8---15-12h13p12h13p12-------12-------12---12
A|------8-------------------13-15----13-15----13--
F|------------------------------------------------
G|------------------------------------------------
C|------------------------------------------------
D|------------------------------------------------

D|-12-8---15-12h13p12h13p12----------12----------------15-|
A|------8-------------------12h13-15----13-15-13-12-------|
F|--------------------------------------------------12----|
G|--------------------------------------------------------|
C|--------------------------------------------------------|
D|--------------------------------------------------------|

| |Bridge (Acoustic)
|D|-0-0-0-0-0-0-0-0-0--0-0-0-0-0-0-0-0-0--3-3-3-3-3-3-3-3-3
|A|-1-1-1-1-1-1-1-1-1--1-1-1-1-1-1-1-1-1--2-2-2-2-2-2-2-2-2
|F|-2-2-2-2-2-2-2-2-2--0-0-0-0-0-0-0-0-0--3-3-3-3-3-3-3-3-3
|G|-2-2-2-2-2-2-2-2-2--2-2-2-2-2-2-2-2-2--0-0-0-0-0-0-0-0-0
|C|-0-0-0-0-0-0-0-0-0--3-3-3-3-3-3-3-3-3--x-x-x-x-x-x-x-x-x
|D|-0-0-0-0-0-0-0-0-0--0-0-0-0-0-0-0-0-0--x-x-x-x-x-x-x-x-x
| |
|D|-1-1-1-1-1-1-1-1-1~-|
|A|-1-1-1-1-1-1-1-1-1~-|
|F|-2-2-2-2-2-2-2-2-2~-|
|G|-3-3-3-3-3-3-3-3-3~-|
|C|-3-3-3-3-3-3-3-3-3~-|
|D|-0-0-0-0-0-0-0-0-0~-|
| |
| |Bridge (Electric)
|D|--------------------------------------------------------
|A|--------------------------------------------------------
|F|--------------------5-5-5-5-5-5-5-5-5--7-7-7-7-7-7-7-7-7
|G|-7-7-7-7-7-7-7-7-7--5-5-5-5-5-5-5-5-5--7-7-7-7-7-7-7-7-7
|C|-7-7-7-7-7-7-7-7-7--3-3-3-3-3-3-3-3-3--5-5-5-5-5-5-5-5-5
|D|-5-5-5-5-5-5-5-5-5--------------------------------------
| |
|D|--------------------
|A|--------------------
|F|--------------------
|G|-3-3-3-3-3-3-3-3-3~-
|C|-3-3-3-3-3-3-3-3-3~-
|D|-1-1-1-1-1-1-1-1-1~-

Chorus (Acoustic)
D|--0-0-xx-3-3-xx-0-0-xx-3-3-xx-2-2-2-3-2-2-1-1-1-1-1-1-|
A|--1-1-xx-0-0-xx-2-2-xx-0-0-xx-3-3-3-3-3-3-1-1-1-1-1-1-|
F|.-0-0-xx-0-0-xx-2-2-xx-0-0-xx-2-2-2-2-2-2-2-2-2-2-2-2.|
G|.-2-2-xx-0-0-xx-1-1-xx-0-0-xx-0-0-0-0-0-0-3-3-3-3-3-3.| x2
C|--3-3-xx-2-2-xx-0-0-xx-2-2-xx-x-x-x-x-x-x-3-3-3-3-3-3-|
D|--0-0-xx-3-3-xx-0-0-xx-3-3-xx-x-x-x-x-x-x-1-1-1-1-1-1-|


That's it, any Comments, or corrections, email me at fluffymcgill@hotmail.com,
tho I'm pretty sure this is 100% right
I've noticed no one has really tabbed a great version of this song, so I thought
I'd tab it.
well the chords out and the solo, not all the amounts and order and stuff cos I
don't feel like doin all that right now.
it's dropped half a step this song so play in Eb-Ab-Db-Gb-Bb-Eb

Intro
|-0-------0---3---0---0-
|-1---1---1---3---3---1-
|-0---0---2---0---2---2-
|-2---0---2---0---0---3-
|-3---2---0---x-------3-
|-------------3-------1-

ok that last Fmaj7 chord you either play like that with your thumb, or you can
just play an F barre chord, doesn't really make too much difference.

Verse
|-----0---0---3-
|-1---1---1---3-
|-0---2---2---0-
|-2---0---3---0-
|-3-------3---x-
|---------1---3-

then for the chorus use the intro chords.
the second verse is a little different to the first

Verse 2
|-----5---0---3-
|-1---3---1---3-
|-0---2---2---0-
|-2---0---3---0-
|-3-------3---x-
|---------1---3-

then after that's played once you'll play.

|-----------------------------0----------
|-----0-----0-----1-----1---1---1--------
|---1-----1-----2-----2-----------2------
|-------------0-----0-----3---------3----
|-3-----3--------------------------------
|--------------------------------------3-

|-3-3-3-------------------------------------
|-3-3-3------5-----5-----5-----5------------
|-0-0-0------5-----5-----5-----5--7-7-7-7-7-
|-0-0-0---------------------------7-7-7-7-7-
|-x-x-x---------------------------5-5-5-5-5-
|-3-3-3--5-5---5-5---4-4---4-4--------------

then the chords

|-0-------------------------
|-1-------------------------
|-2---5---5---2-------7---5-
|-3---5---5---2---5---7---x-
|-3---3---2---0---5---5---3-
|-1---------------3---------

you're going to have to listen to the strumming for the above cos some have less
strums than others.

then the solo

|-12--------15--12^^^----------------12-------15-12^^^----------------
|----13---------------13/15--15^-15-----13-------------13/15-15-15-15-
|-------12---------------------------------12-------------------------
|---------------------------------------------------------------------
|---------------------------------------------------------------------
|---------------------------------------------------------------------

----------------------------13^-12-|
-15-13-13-13-13-12-13-15-----------|
-------------------------12--------|
-----------------------------------|
-----------------------------------|
-----------------------------------|

then go into single strums on chords below

|-0---0---0-----
|-1---1---3---1-
|-2---1---2---0-
|-2-------0---3-
|-0-----------3-
|-------------1-

then basically for the outro you're just playing the solo and once the solo is
finished play

|-----------------------
|-----------------------
|-5-------5/7--5-5/7--5-
|-x-(x14)-x----x-x----5-
|-3-------3/5--3-3/5--3-
|-----------------------

then that's the end of the song for you.
please rate it
b      = full bend
b(1/2) = half bend




Solo(Version 1)

e|-11---7---14----12h13p12h13p12-7---9---9b---9--11h(1/2)--|
B|--------7------------------------------------------------|
G|---------------------------------------------------------|
D|---------------------------------------------------------|
A|---------------------------------------------------------|
E|---------------------------------------------------------|

e|-11---7---14----12h13p12h13p12-7---9---7---6-7-9-2-------|
B|--------7------------------------------------------------|
G|---------------------------------------------------------|
D|---------------------------------------------------------|
A|---------------------------------------------------------|




Solo(Version 2)

e|-11---------14--12h13p12h13p12-12---14---14b--14--11h(1/2)--|
B|------12----------------------------------------------------|
G|----------11------------------------------------------------|
D|------------------------------------------------------------|
A|------------------------------------------------------------|
E|------------------------------------------------------------|

e|-11---------14--12h13p12h13p12-12---14---12---11-12-14-11---|
B|------12----------------------------------------------------|
G|----------11------------------------------------------------|
D|------------------------------------------------------------|
A|------------------------------------------------------------|
E|------------------------------------------------------------|


alexwany@hotmail.com
Song: Another Perfect Day
Band: American Hi-Fi
Album: American Hi-Fi
Tabbed By: Joe Swindells (joeswindells@hotmail.com)
Tuning: 1/2 step down (sounds a semitone lower than written here)
Notes: When you're playing this on your own, you don't have to tune down.
Listen to CD for struming patterns

h = hammer-on
p = pull-off
b = bend
/ = slide up
= slide down
5 = power chord


Intro/Chorus
C C/B Am G Dsus2 F
e|-0-----0-----0-----3-----5-----1-----------------------------------------|
B|-1-----1-----1-----3-----5-----1-----------------------------------------|
G|-0-----0-----2-----4-----7-----2-----------------------------------------|
D|-2-----0-----2-----5-----7-----3-----------------------------------------|
A|-3-----2-----0-----5-----5-----3-----------------------------------------|
E|-------------------3-----------1-----------------------------------------|

Verse
C Am F G
e|-0-----0-----1-----3-----------------------------------------------------|
B|-1-----1-----1-----3-----------------------------------------------------|
G|-0-----2-----2-----0-----------------------------------------------------|
D|-2-----2-----3-----0-----------------------------------------------------|
A|-3-----0-----3-----2-----------------------------------------------------|
E|-------------1-----3-----------------------------------------------------|

Bridge
Am G# Am F
e|-5-----4-----5-----1-----------------------------------------------------|
B|-5-----4-----5-----1-----------------------------------------------------|
G|-5-----5-----5-----2-----------------------------------------------------|
D|-7-----6-----7-----3-----------------------------------------------------|
A|-7-----6-----7-----3-----------------------------------------------------|
E|-5-----4-----5-----1-----------------------------------------------------|

Solo 1
e|-12--------15--12h13p12h13p12------------12--------15--12h13p12h13p12----|
B|----13------------------------13-15b17------13---------------------------|
G|-------12--------------------------------------12------------------------|
D|-------------------------------------------------------------------------|
A|-------------------------------------------------------------------------|
E|-------------------------------------------------------------------------|

e|-------------------------------------------------------------------------|
B|--13-15--13--12-13-15----------------------------------------------------|
G|----------------------13-------------------------------------------------|
D|-------------------------------------------------------------------------|
A|-------------------------------------------------------------------------|
E|-------------------------------------------------------------------------|

Solo 2
e|-12--------15--12h13p12h13p12--------------------------------------------|
B|----13------------------------13-15b17b(15)-13---------------------------|
G|-------12---------------------------------------(x2)---------------------|
D|-------------------------------------------------------------------------|
A|-------------------------------------------------------------------------|
E|-------------------------------------------------------------------------|


Lyrics

I'm holding on
Waiting for your call
It's simple but I can't explain this, (Verse 1)
I'm sinking down
I feel like I could die
I'm falling off I don't know why

I still believe it when you say
It's another perfect day, another perfect day. (Chorus)
I still believe it when you say
It's another perfect day, another perfect day.

So I might try
To leave it all behind
I know tomorrows not so bright now, (Verse 2)
I'll say goodbye
Cause nothing good can last
You wear and fade you're nowhere fast.

Today
I don't know how (Bridge 1)
To keep it all inside
But I guess I'll let it slide

(Chorus)

Today
I don't know why (Bridge 2)
I thought that it was real
But I guess it's no big deal

(Chorus)

I don't know how
I don't know how (Outro)
I don't know how
To let it slide