American Hi Fi — Flavor Of The Weak (solo ver 2)

Right after the second chorus, the solo starts...

e-------------------------------------------------
B-------------------------------------------------
G-7---8---10---12---------7---8---10---12---------
D-------------------------------------------------
A-------------------------------------------------
E-------------------------------------------------

e-------------------------------------------------
B-------------------------------------------------
G-7---8---10---12---------12---14---15---17-------
D-------------------------------------------------
A-------------------------------------------------
E-------------------------------------------------

e-13-------13-------13-------13-------13----------
B----13h15----13h15----13h15----13h15----13s11----
G-------------------------------------------------
D-------------------------------------------------
A-------------------------------------------------
E-------------------------------------------------

e-------------------------------------------------
B-------------------------------------------------
G-15-15-14-14-12-12-10-10s8--7h8-8-8-8-7h8h7-5-3--
D-15-15-15-15-13-13-12-12s10-8-8-8-8-8-8-8-8-5-3--
A-------------------------------------------------
E-------------------------------------------------

e-------------------------------------13----------
B-----------------------------13-13h5-------------
G-15-15-12-15-15-12-15--12-15---------------------
D-------------------------------------------------
A-------------------------------------------------
E-------------------------------------------------

e-------13-------13-------13----------------------
B-13h15----13h15----13h15----13h15h13-11-11-------
G-------------------------------------------------
D-------------------------------------------------
A-------------------------------------------------
E-------------------------------------------------

*************************
This solo is pretty easy. In fact it's very easy.
This might not be 100% correct, but it sounds good
and I like it this way. Have fun.

-Caspian Sawczak
*************************
afireinside88@hotmail.com

OR

tigerarmy_neverdie@hotmail.com