American Hi Fi — Flavor Of The Week

На этой странице Вы можете ознакомиться с 5 версиями подбора аккордов для гитары к песне "Flavor Of The Week" группы (исполнителя) "American Hi Fi".

Drop D tuning. if you got any quistions e-mail me at sosa101@aol.com 

Guitar plays twice then: Intro (2x)
G:-----------------------------------------------------------------
D:-----------------------------------------------------------------
A:-----------------------------------------------------------------
D:--3-5-5--5-5--5-5-1-1-0-1-1--------------------------------------

Verse 1 (2x)
G:-----------------------------------------------------------------
D:-----------------------------------------------------------------
A:-1-1-1-1-1-1-1-1---------------------------------6-6-6-6-6-6-6-6-
D:-----------------3-3-3-3-3-3-3-3-5-5-5-5-5-5-5-5-----------------

Prechorus
G:-----------------------------------------------------------------
D:-----------------------------------------------------------------
A:---------1--1-1--------3-3-3-3-3-3-3-3-3-3-3-3--6-5--------------
D:--5--5-5--------3--3-3-------------------------------------------

Prechorus (Cont.)
G:-----------------------------------------------------------------
D:-----------------------------------------------------------------
A:-1-1-1-1-1-1-1-1--3-3-3-3-3-3-3-3--------------------------------
D:-----------------------------------------------------------------

Chorus (2x)
G:-----------------------------------------------------------------
D:-----------------------------------------------------------------
A:-1-1-------3-3-3-3-3-3-3-3-6-6-6-6-6-6-6-6-----------------------
D:------3-3--------------------------------------------------------

Post-chorus (2x)
G:-----------------------------------------------------------------
D:-----------------------------------------------------------------
A:-1-1-1-1-1-1-1-1-----------------3-3-3-3-3-3-3-3-6-6-6-6-6-6-6-6-
D:-----------------3-3-3-3-3-3-3-3---------------------------------

Repeat Intro

Repeat Verse 2x

Repeat Prechorus

Repeat Chorus 2x

Repeat Post-chorus 2x

Repeat Intro 4x

Then play:
G:----------------------------------------------------------------
D:----------------------------------------------------------------
A:-1-1--1-1--1-1----------3-3--3-3--6-6-6-6-6-6-6-6---------------
D:---------------3-3--3-3-----------------------------------------

G:----------------------------------------------------------------
D:----------------------------------------------------------------
A:-1-1--1-1--1-1----------3-3--3-3--6-6---------------------------
D:---------------3-3--3-3---------------1-(Let Last note ring)----

Then a variation of the chorus:
G:----------------------------------------------------------------
D:----------------------------------------------------------------
A:-1-1-------3-3---6-6--------------------------------------------
D:------3-3-------------------------------------------------------

Repeat Post-Chorus 5x
American Hi-Fi, Flavor of the Weak.
Tabbed by King Of The Eskimos, kingoftheeskimos@silverchair.org.

Song: Flavor of the Weak
Artist: American Hi-Fi
Tabbed by King Of The Eskimos, 6/6/01
Drop-D Tuning

Intro:
e--------------------------------------------------
B--------------------------------------------------
G--------------------------------------------------
D—-5-5--5-5—-5-5--1-1-0-1-1-1-3--------------------
A—-5-5--5-5—-5-5--1-1-0-1-1-1-3--------------------
D—-5-5--5-5—-5-5--1-1-0-1-1-1-3--------------------
x4

Verse:
e--------------------------------------------------
B--------------------------------------------------
G--3-3333333----------------------88888888---------
D--3-3333333--33333333--55555555--88888888---------
A--1-1111111--33333333--55555555--66666666---------
D-------------33333333--55555555-------------------
PM___________________________________
x2

Pre-Chorus:
e--------------------------------------------------
B--------------------------------------------------
G--------------3-x--3-3------------5-5-5-5---------
D--5-x--5-5-x--3-x--3-3--3-x--3-3--5-5-5-5--1-1-3-3
A--5-x--5-5-x--1----1-1--3-x--3-3--3-3-3-3--1-1-3-3
D--5----5-5--------------3----3-3-----------1-1-3-3

Riff 1: (Play over Pre-Chorus)
e--------------------------------------------------
B--------------------------------------------------
G--5--5--5-5--55--/8-7-3--3-3--5--5-5--5555--------
D--------------------------------------------------
A--3--3--3-3--33--/6-5-1--1-1--3--3-3--3333--------
D--------------------------------------------------

Chorus:
e--------------------------------------------------
B--------------------------------------------------
G--3-3-----------------5555555--88888888-----------
D--3-3-------3-3-------5555555--88888888-----------
A--1-1-------3-3-------3333333--66666666-----------
D------------3-3-----------------------------------
x2

e--------------------------------------------------
B--------------------------------------------------
G--33333333------------5555555--88888888-----------
D--33333333--33333333--5555555--88888888-----------
A--11111111--33333333--3333333--66666666-----------
D------------33333333------------------------------

e--------------------------------------------------
B--------------------------------------------------
G--33333333----------------------------------------
D--33333333--33333333--5-5--5-5--5-5--1-1-0-1-1-1-3
A--11111111--33333333--5-5--5-5--5-5--1-1-0-1-1-1-3
D------------33333333--5-5--5-5--5-5--1-1-0-1-1-1-3

Riff 2: (Play over chorus)
e--------------------------------------------------
B--------------------------------------------------
G----7b8-5---7b8-5----------7b8-5---7b8-5-8b-------
D--8-------3-------5------8-------3----------------
A--------------------------------------------------
D--------------------------------------------------

All the parts are here except for solos, and small lead interjections made by the guitarist. Just improv these and have some fun. This tab was made from memory, so send any comments/suggestions and/or large sums of money to kingoftheeskimos@silverchair.org
Thanx for using my tab, and good luck!
Long live the art form that is Rock n Roll!






:: Ultimate Guitar Archive ::
http://www.ultimate-guitar.com
Tabbed by dan greenhalgh

This tab should be played with drop D Tuning, but can be played like this.

Intro

G----------------|----------------|
D-5-5--5-5--5-5--|-1-1-0-1-1-1-3--| 2X (after guitar has done it twice)
A----------------|----------------|
E----------------|----------------|

Verse

G-------------------|-----------------|-----------------|-----------------|
D-------------------|-----------------|-----------------|-1-1-1-1-1-1-1-1-| 2X
A-1-1-1-1-1-1-1-1-1-|-----------------|-----------------|-----------------|
E-------------------|-1-1-1-1-1-1-1-1-|-3-3-3-3-3-3-3-3-|-----------------|

Pre-Chorus

G--------|--------|--------|-----------------|-----------------|-----------------|
D--------|--------|--------|-----------------|-----------------|-----------------|
A--------|-1--1-1-|--------|-3-3-3-3-3-3-6-5-|-1-1-1-1-1-1-1-1-|-3-3-3-3-3-3-3-3-|
E-3--3-3-|--------|-1--1-1-|-----------------|-----------------|-----------------|


Chorus

G-----|-----|-----|----------------|
D-----|-----|-----|-1-1-1-1-1-1-1-1| 2X
A-1-1-|-----|-3-3-|----------------|
E-----|-1-1-|-----|----------------|

Post Chorus

G-----------------|-----------------|-----------------|-----------------|
D-----------------|-----------------|-----------------|-1-1-1-1-1-1-1-1-|
A-1-1-1-1-1-1-1-1-|-----------------|-3-3-3-3-3-3-3-3-|-----------------|
E-----------------|-1-1-1-1-1-1-1-1-|-----------------|-----------------|

Post Chorus (Continued)

G-----------------|-----------------|---------------|---------------|
D-----------------|-----------------|-5-5--5-5--5-5-|-1-1-0-1-1-1-3-|
A-1-1-1-1-1-1-1-1-|-----------------|---------------|---------------|
E-----------------|-1-1-1-1-1-1-1-1-|---------------|---------------|


Verse

Pre-Chorus

Chorus

Post Chorus

Intro X 3

Guitar Solo

G----------------------------------------------------|
D------------------------------------1-1-1-1-1-1-1-1-|
A-1-1--1-1--1-1------------3-3--3-3------------------|
E-----------------1-1--1-1---------------------------|

G-------------------------------------------------|
D------------------------------------1-1--1-1--1--|
A-1-1--1-1--1-1------------3-3--3-3---------------|
E-----------------1-1--1-1------------------------|

Stop for 4 bars while guitar plays stuff, then:

G--------------------|
D----------------1-1-|
A-1-1-------3-3------|
E------1-1-----------|

Then:

G-----------------|-----------------|-----------------|-----------------|
D-----------------|-----------------|-----------------|-1-1-1-1-1-1-1-1-| 5X
A-1-1-1-1-1-1-1-1-|-----------------|-3-3-3-3-3-3-3-3-|-----------------|
E-----------------|-1-1-1-1-1-1-1-1-|-----------------|-----------------|
Song: Flavour of the weak
Artist: American Hi-Fi
Album: American Hi-Fi
Transcripter: x_myzery_x

v = vibrato
/ = schlide
^ (P.M.) = palm mute
b = bend
r = release


e|-----------------|-------------|
B|-----------------|-------------|
G|-----------------|-------------|
D|-----------------|-------------| (Repeat 2x)
A|-3/5-5--5-5--5-5-|-0-1-0-1-0-1-|
D|-3/5-5--5-5--5-5-|-0-1-0-1-0-1-|

|---------------------|---------------------|--------------------|--------------------|
|---------------------|---------------------|--------------------|--------------------|
|---------------------|---------------------|--------------------|--------------------|
|---------------------|---------------------|--------------------|--------------------|
|---------------------|---------------------|--------------------|-6-6--6-6--6-6--6-6-|
|-8-8--8-8--8-8--8-8--|-3-3--3-3--3-3--3-3--|-5-5--5-5--5-5--5-5-|--------------------|
[ ^ ^ ^ ^ ^ ^ ^ ^ ^ ^ ^ ^ ^ ^ ^ ^ ^ ^ ^ ^ ^ ^ ^ ^ ^ ^ ^ ^ ^ ^ ^ ^ ]
P.M.
She paints her nails And she don't Know he's got her Best friend on the phone


|--------------------|---------------------|--------------------|--------------------|
|--------------------|---------------------|--------------------|--------------------|
|--------------------|---------------------|--------------------|--------------------|
|--------------------|---------------------|--------------------|-8-8-8-8---8-8-8-8--|
|--------------------|---------------------|--------------------|-6-6-6-6---6-6-6-6--|
|-8-8--8-8--8-8--8-8-|-3-3--3-3--3-3--3-3--|-5-5--5-5--5-5--5-5-|--------------------|
[ ^ ^ ^ ^ ^ ^ ^ ^ ^ ^ ^ ^ ^ ^ ^ ^ ^ ^ ^ ^ ^ ^ ^ ^ ]
P.M.
She'll wash her Hair, his dirty Clothes, or All he gives to her


|-------------------|-------------------|-------------------|---------------------------|
|-------------------|-------------------|-------------------|---------------------------|
|-------------------|-------------------|-------------------|---------------------8-7---|
|-------------------|-------------------|-------------------|-5------5------5---------8-|
|-5-5-5-5--5-5-5-5--|-8-8-8-8--8-8-8-8--|-3-3-3-3--3-3-3-3--|-3-3-3--3-3-3--3-3-3-------|
|-5-5-5-5--5-5-5-5--|-8-8-8-8--8-8-8-8--|-3-3-3-3--3-3-3-3--|---------------------------|
[^ ^ ^ ^ ^ ^]
P.M.
And he's got Posters on the Wall Of all the girls he wished she was


|---------------|
|---------------|
|-----------8-7-|
|-8-10v---------|
|---------------|
|---------------|
And he means everything to her


|--------------|--------------|------------------|------------------|
|--------------|--------------|------------------|------------------|
|--------------|--------------|------------------|------------------|
|--------------|--------------|-5-5-5-5--5-5-5-5-|-8-8-8-8--8-8-8-8-| (Repeat 2x)
|-8-8----------|-3-3----------|-3-3-3-3--3-3-3-3-|-6-6-6-6--6-6-6-6-|
|-8-8----------|-3-3----------|------------------|------------------|
Her boyfriend He don't know Anything About her needs
Too stoned Nintendo I wish that I could make her see


|-------------------|------------------------------|----------------------|----3-------------|
|-------------------|------------------------------|----------------------|------------------|
|-7-5------7-5------|------------------------------|-7-5------7-5---5b(7)-|-(7)--5b(7)r(5)-3-|
|-----8--------8-5v-|------------------------------|-----8--------8-------|------------------|
|-------8v----------|------------------------------|-------8v-------------|------------------|
|-------------------|------------------------------|----------------------|------------------|
She's just the flavor of the week


|--------------------|--------------------|--------------------|--------------------|
|--------------------|--------------------|--------------------|--------------------|
|--------------------|--------------------|--------------------|--------------------|
|--------------------|--------------------|--------------------|--------------------| (Rep. 2x)
|--------------------|--------------------|--------------------|-6-6--6-6--6-6--6-6-|
|-8-8--8-8--8-8--8-8-|-3-3--3-3--3-3--3-3-|-5-5--5-5--5-5--5-5-|--------------------|
[ ^ ^ ^ ^ ^ ^ ^ ^ ^ ^ ^ ^ ^ ^ ^ ^ ^ ^ ^ ^ ^ ^ ^ ^ ^ ^ ^ ^ ^ ^ ^ ^ ]
P.M.
Its friday Night She's all Alone He's a million miles a-
Way she's dressed to Kill The TV's On He's connected to the


|-------------------|------------------|------------------|---------------------------|
|-------------------|------------------|------------------|---------------------------|
|-------------------|------------------|------------------|---------------------8-7---|
|-------------------|------------------|------------------|-5------5------5---------8-|
|-5-5-5-5--5-5-5-5--|-8-8-8-8--8-8-8-8-|-3-3-3-3--3-3-3-3-|-3-3-3--3-3-3--3-3-3-------|
|-5-5-5-5--5-5-5-5--|-8-8-8-8--8-8-8-8-|-3-3-3-3--3-3-3-3-|---------------------------|
[^ ^ ^ ^ ^ ^]
P.M.
Sound and she's got Pictures on the Wall Of all the girls he's loved before


|---------------|
|---------------|
|-----------8-7-|
|-8/10v---------|
|---------------|
|---------------|
And she knows all his favorite songs


|--------------|--------------|-------------------|-------------------|
|--------------|--------------|-------------------|-------------------|
|--------------|--------------|-------------------|-------------------|
|--------------|--------------|-5-5-5-5--5-5-5-5--|--8-8-8-8--8-8-8-8-| (Repeat 2x)
|-8-8----------|-3-3----------|-3-3-3-3--3-3-3-3--|--6-6-6-6--6-6-6-6-|
|-8-8----------|-3-3----------|-------------------|-------------------|
Her boyfriend He don't know Anything About her needs
Too stoned Nintendo I wish that I could make her see



|--------------------|------------------------------------|
|--------------------|------------------------------------|
|--7-5------7-5------|------------------------------------|
|------8--------8-5v-|------------------------------------|
|--------8v----------|------------------------------------|
|--------------------|------------------------------------|
She's just the flavor of the week


Solo
----

|-----------------|
|-----------------|
|--7-5------7-5---|
|------8--------8-|
|--------8v-------|
|-----------------|

|---------------------------------------|
|---------------------------------------|
|5b(7)-6b(8)-8b(10)-10b(12)(12)(12)(12)-|
|---------------------------------------| (Repeat 3x)
|---------------------------------------|
|---------------------------------------|

|--------------------------------------------|
|--------------------------------------------|
|10b(12)-12b(14)-13b(15)-15b(17)(17)(17)(17)-|
|--------------------------------------------|
|--------------------------------------------|
|--------------------------------------------|

|13---------13---------13---------13----------13---------|
|---13b(15)-----13b(15)----13b(15)----13b(15)----13b(15)-|
|--------------------------------------------------------|
|--------------------------------------------------------|
|--------------------------------------------------------|
|--------------------------------------------------------|

|------------------------------------------|
|15-14-12----------------------------------|
|---------15-12-12b(14)(14)(14)r(12)sl10-8-|
|------------------------------------------|
|------------------------------------------|
|------------------------------------------|

|-------------------------------------------------|
|---------11-11--------11-11--------11---------11-|
|-10b(12)-------10b(12)------10b(12)----10b(12)---|
|-------------------------------------------------|
|-------------------------------------------------|
|-------------------------------------------------|

|-------------13-13-------13-13-------13--------13-|----------|
|11-13-13b(15)-----13b(15)-----13b(15)---13b(15)---|-8-6------|
|--------------------------------------------------|-----7----|
|--------------------------------------------------|-------8v-|
|--------------------------------------------------|----------|
|--------------------------------------------------|----------|

(end solo)


|-----------------|-----------------|-----------------|------------------|
|-----------------|-----------------|-----------------|------------------|
|-----------------|-----------------|-----------------|------------------|
|-----------------|-----------------|-5-5-------------|-8-8-8-8--8-8-8-8-|
|-8-8-------------|-3-3-------------|-3-3-------------|-6-6-6-6--6-6-6-6-|
|-8-8-------------|-3-3-------------|-----------------|------------------|
He's too stoned He's too stoned He's too stoned He's too stoned


|-------------------|------------------|-------------------|-------------------|
|-------------------|------------------|-------------------|-------------------|
|-------------------|------------------|-------------------|-------------------|
|-------------------|------------------|-5-5-5-5--5-5-5-5--|--8-8-8-8--8-8-8-8-|
|-8-8-8-8--8-8-8-8--|-3-3-3-3--3-3-3-3-|-3-3-3-3--3-3-3-3--|--6-6-6-6--6-6-6-6-|
|-8-8-8-8--8-8-8-8--|-3-3-3-3--3-3-3-3-|-------------------|-------------------|
Her boyfriend He don't know Anything About her needs

|---------------------|------------------------|
|---------------------|------------------------|
|-7-5------7-5--------|----------------7-10-7--|
|------8--------8-5v--|----------8-10---------8| (Repeat 2x)
|--------8v-----------|------------------------|
|---------------------|------------------------|
Too stoned; Nintendo I wish I could make her see
She's just the flavor of the week

|-----------------|-----------------------------------------|
|-----------------|-----------------------------------------|
|--7-5------7-5---|-5b(7)-6b(8)--5b(7)-6b(8)-------7-8-7----|
|------8--------8-|---------------------------8-10--------8-|
|--------8v-------|-----------------------------------------|
|-----------------|-----------------------------------------|
Yeah, she's the flavor of the week

|----------------------|------------------|
|----------------------|------------------|
|--7-5------7-5--------|------------------|
|------8--------8-8/10-|------------------|
|--------8v------------|------------------|
|----------------------|------------------|
She makes me weak

lyrics:

She paints her nails
And she don't know
He's got her best friend on the phone
She'll wash her her
His dirty clothes are all he gives to her
And he's got posters on the wall
Of all the girls he wish she was
And he means everything to her

Her boyfriend
He don't know
Anything about her
He's too stoned
Nintendo
I wish that i could make her see
She's just the flavor of the week

It's friday night
She's all alone
He's a million miles away
And she's dressed to kill
The TV's on
He's connected to the sound
And he's got pictures on the wall
Of all the girls he's loved before
And she knows all his favortie songs

Her boyfriend
He don't know
Anything about her
He's too stoned
Nintendo
I wish that i could make her see
She's just the flavor of the week

Her boyfriend
He don't know
Anything about her
He's too stoned
He's too sonted
He's too stoned
He's too stoned

Her boyfriend
He don't know
Anything about her, needs
Too stoned
Nintendo
I wish that i could make her see
She's just the flavor of the week
Yeah she's just the flavor of the week
She makes me weak


enjoy!!!
Drop D Tuning

---------------------------------------------------------
---------------------------------------------------------
---------------------------------------------------------
-8-8-8-8-8-8-8-8-3-3-3-3-3-3-3-3-5-5-5-5-5-5-5-5-1-1-1-1-
-8-8-8-8-8-8-8-8-3-3-3-3-3-3-3-3-5-5-5-5-5-5-5-5-1-1-1-1-
-8-8-8-8-8-8-8-8-3-3-3-3-3-3-3-3-5-5-5-5-5-5-5-5-1-1-1-1-

P.M......................................................

--------
--------
--------
-1-1-1-1 Repeat once per verse.
-1-1-1-1
-1-1-1-1

P.M......