American Hi Fi — Nothing Left To Lose

На этой странице Вы можете ознакомиться с 2 версиями подбора аккордов для гитары к песне "Nothing Left To Lose" группы (исполнителя) "American Hi Fi".

Intro/Verse
e----------------------------------------------------------------------------
B----------------------------------------------------------------------------
G------------------------7-7-7-----------------------------------------------
D--7-7-7--2-2--4--5-5-5--7-7-7--6--7-7-7-------------------------------------
A--7-7-7--2-2--4--5-5-5--5-5-5--6--7-7-7-------------------------------------
E--5-5-5--0-0--2--3-3-3---------4--5-5-5-------------------------------------

Fill
e----------------------------------------------------------------------------
B----------------------------------------------------------------------------
G----------------------------------------------------------------------------
D--7-7--x-x--7-7--x-x--7-7---------------------------------------------------
A--7-7--x-x--7-7--x-x--7-7---------------------------------------------------
E--5-5--x-x--5-5--x-x--5-5---------------------------------------------------

Chorus
e----------------------------------------------------------------------------
B----------------------------------------------------------------------------
G--------------------4-4-4-4--7-7-7-7----------------------------------------
D--7-7-7-7--2-2-2-2--4-4-4-4--7-7-7-7--------x4------------------------------
A--7-7-7-7--2-2-2-2--2-2-2-2--5-5-5-5----------------------------------------
E--5-5-5-5--0-0-0-0----------------------------------------------------------

Bridge Thingy
e----------------------------------------------------------------------------
B----------------------------------------------------------------------------
G-----9--11--7-7-------------------------------------------------------------
D--7--9--11--7-7-------------------------------------------------------------
A--7--7--9---5-5-------------------------------------------------------------
E--5-------------------------------------------------------------------------


e----------------------------------------------------------------------------
B--10---7--------------------------------------------------------------------
G------------9---7-----------------------------------------------------------
D----------------------------------------------------------------------------
A----------------------------------------------------------------------------
E----------------------------------------------------------------------------

Order
Intro/Verse
Fill
Chorus
Intro/Verse
Fill
Chorus
Bridge Thingy
Chorus
Intro
Tabbed by Fabio Marin Junior - fussball00@hotmail.com -
26th of july, 2003
Sao Paulo, SP, Brazil

Ok... most american hi-fi songs are played in dropped D tunning...
I figured out how to play this song in standard tunning...

Intro:
e|---------------------------------|
B|---------------------------------|
G|-------------------------7-7-7---|
D|---7-7-7---2-2-2-5-5-5---7-7-7---|
A|---7-7-7---2-2-2-5-5-5---5-5-5---|
E|---5-5-5---0-0-0-3-3-3-----------|

Verse:
(same as intro)

Transition from verse to chorus:
e|-----------------------------------|
B|-----------------------------------|
G|-----------------------------------|
D|---2-2-7---2-2-7---2-2-7---x-x-x---|
A|---2-2-7---2-2-7---2-2-7---x-x-x---|
E|---0-0-5---0-0-5---0-0-5---x-x-x---|

Chorus:
e|-------------------------------------------|
B|-------------------------------------------|
G|-----------------------4-4-4-4---7-7-7-7---|
D|---7-7-7-7---2-2-2-2---4-4-4-4---7-7-7-7---|
A|---7-7-7-7---2-2-2-2---2-2-2-2---5-5-5-5---|
E|---5-5-5-5---0-0-0-0-----------------------|


listen carefully for small rythym changes...

Chords:
A|5-7-7-x-x-x|
B|x-2-4-4-x-x|
D|x-5-7-7-x-x|
E|0-2-2-x-x-x|
G|3-5-5-x-x-x|