American Hi Fi — Teenage Alien Nation

На этой странице Вы можете ознакомиться с 2 версиями подбора аккордов для гитары к песне "Teenage Alien Nation" группы (исполнителя) "American Hi Fi".

American Hi-FI  - Teenage Alien Nation

This is the best song on the album, and when I came to get the tab I couldn’t
find it so I got off my ass and tabbed it myself.i have now redone the tab for
this and now it sounds brilliant.

Rate Me Please

Standard tuning

Intro w/ Distortion
-------------------------------------------------------
-------------------------------------------------------
-44---------xx----xx-----------------------------------
-44-44--77--xx-22-xx-22--------------------------------
-22-44--77--xx-22-xx-22--------------------------------
----22--55--xx-00-xx-00--------------------------------x6

Verse part 1
-------------------------------------------------------
-------------------------------------------------------
-44---------xx----xx-----------------------------------
-44-44--77--xx-22-xx-22--------------------------------
-22-44--77--xx-22-xx-22--------------------------------
----22--55--xx-00-xx-00--------------------------------x4

Verse part 2
-------------------------------------------------------
-------------------------------------------------------
-44---------xx----xx-----------------------------------
-44-44--77--xx-22-xx-22--------------------------------
-22-44--77--xx-22-xx-22--------------------------------
----22--55--xx-00-xx-00--------------------------------x4
PM_____________________________

Chorus
---------------- -------------------
---------------- -------------------
-4-xx----------- -------------------
-4-xx-8-7------- on third time do ------5------------ at the end
-2-xx-8-7------- ------5------------
------6-5------- ------3------------

then
----------------------
----------------------
--5-5-5-5--7-7-7-7----
--5-5-5-5--7-7-7-7----
--3-3-3-3--5-5-5-5----
----------------------x2

then intro x2

then verse

then chorus

then intro x4

Solo
---------------------------------------------------------------------------
---------------------------------------------------------------------------
-14-14-14-14-12-14-12-12-9-9-9-9-12---14-14-14-14-12-14-12-9-9-9-9-12-12-15
---------------------------------------------------------------------------
---------------------------------------------------------------------------
---------------------------------------------------------------------------

---------------------------------------------------------------------------
---------------------------------------------------------------------------
-14-14-14-14-12-14-12-12-9-9-9-9-12---14-14-14-14-12-14-12-9-9-9-9-12h13p12
---------------------------------------------------------------------------
---------------------------------------------------------------------------
---------------------------------------------------------------------------

Quiet part
----------------
----------------
-4-xx-----------
-4-xx-8-7-------
-2-xx-8-7-------
------6-5------- Slowly

then chorus

Outro
-----------
-----------
-55-55-55--
-55-55-55--
-33-33-33--
-----------

Thanx
This is another drop D song by American Hi-fi from what I can tell, and I hope
it's all right. You could probably play it in standard tuning with the open
power chords as just a mute, but see what you think when playing it.

Intro/verse
|------------------------------
|------------------------------
|-4-4--------------------------
|-4-4--4-4--7-7--2-2-x-2-2-2-x-
|-2-2--4-4--7-7--2-2-x-2-2-2-x-
|------4-4--7-7--2-2-x-2-2-2-x-

around 1/2 way through the verse it'll change to being palm muted
|------------------------------
|------------------------------
|-4-4--------------------------
|-4-4--4-4--7-7--2-2-x-2-2-2-x-
|-2-2--4-4--7-7--2-2-x-2-2-2-x-
|------4-4--7-7--2-2-x-2-2-2-x-
PM............................

Chorus
|------------------------------------
|------------------------------------
|-4-4---------4-4---------4-4--------
|-4-4--4-0-2--4-4--4-0-2--4-4--4-0-2-
|-2-2--4-0-2--2-2--4-0-2--2-2--4-0-2-
|------4-0-2-------4-0-2-------4-0-2-

(only play part below after chorus first time then repeat the part above)
|---------
|---------
|--/9-9-9-
|---x-x-x-
|--/7-7-7-
|---------

|--------------------------
|--------------------------
|--------------7-----------
|-9------------7-----------
|-7------------5-----------
|-9------------------------
Teenage alien nation woah

|--12--12--12-12--12--12--12-12-
|--12--12--12-12--12--12--12-12-
|-^14-^14-^14-14-^14-^14-^14-14-
|-------------------------------
|-------------------------------
|------------------------------- repeat

verse
when palm muted part comes in in the verse, the second guitar plays
|------------------------
|-12--12-12-14--12-11-12-
|------------------------
|------------------------
|------------------------
|------------------------

chorus

solo
|---------------------------------------------------------------------------
|-12-12-12----------------------------12-12-12------------------------------
|-14-14-14-14-12-11-------------------14-14-14-14-12-11---------------------
|-------------------12-9-9-12-9-9-12---------------------12-12-12-14-14-12--
|---------------------------------------------------------------------------
|---------------------------------------------------------------------------

-------------------------------------------------------------------------------|
-12-12-12----------------------------12-12-12------------12-12-12--------------|
-14-14-14-14-12-11-------------------14-14-14--14-14-14--14-14-14--14-14-14----|
-------------------12-9-9-12-9-9-12------------12-12-12------------12-12-12-12-|
----------------------------------------------------------------------------12-|
-------------------------------------------------------------------------------|

chorus

well that should be most of the song, the solo may be a little off but most
of the actual song seem about right.

___________________________________________
Lyrics (www.azlyrics.com)

I want it all
No matter what thought you heard me say
No matter what you know you can’t escape today
………
So what if you don’t like me
I don’t give a fuck if you don’t like me
I can change my lock
It seems that I’m rotten to the core

Forget about tomorrow
You and me we’re going down in sorrow
Youth of the nation going nowhere
Station to station
Teenage alien nation (woah)
Teenage alien nation (yeah)

It’s all wrong
I guess that some of us have come and gone
I guess we kinda shudda known it all along
Never going anywhere
Sometimes you gotta pick it up and roll the dice
Your looking back and you don’t think twice
Bout feeling lonely everyday

Forget about tomorrow
You and me we’re going down in sorrow
Youth of the nation going nowhere
Station to station [x3]
Teenage alien nation [x4]