American Hi Fi — The Art Of Losing

На этой странице Вы можете ознакомиться с 3 версиями подбора аккордов для гитары к песне "The Art Of Losing" группы (исполнителя) "American Hi Fi".

Artist:American Hi-Fi 
Title :The Art of Losing
Tabbed:Ibanez2k2

Intro
G----------------------------------------------------
D----------------------------------------------------
A----------------------------------------------------
D--0-0-0-2-2----0-0-0-2-2----0-0-0-2-2----0-0-0-2-2--


Verse
G----------------------------------------------------
D----------------------------------------------------
A--7-7-7-7-----5-5-5-5-----3-3-3-3--5--3-2-----------
D-----------9-----------7-------------------3-2-0----

G----------------------------------------------------
D------------------------------------/7-5-4-0--------
A--7-7-7-7-----5-5-5-5-----3-3-3-3-------------------
D-----------9-----------7----------------------------

G----------------------------------------------------
D--------4-5-------4-5------4-5-7-5-4----------------
A--7-7--------5-5-------3-3------------5-------------
D----------------------------------------------------

G----------------------------------------------------
D----------------------------------------------------
A--7-7-7-7-----5-5-5-5-----3-3-3-3-------------------
D----------------------------------------------------

Bridge
G----------------------------------------------------
D----------------------------------------------------
A--5-5-5-5-5-5-5-5----3---3-----5-5-5-5--------------
D-----------------------5---5------------------------


Chorus
G----------------------------------------------------
D----------------------------------------------------
A------------3-3-3-3-------------5-5-5-5-------------
D--2-2-2-2-------------5-5-5-5-----------------------


Post Chorus
G----------------------------------------------------
D----------------------------------------------------
A--------------------3-3-3-3----5-5-5-5--------------
D--3-3-3-3-3-3-3-3-----------------------------------


Outro
G----------------------------------------------------
D----------------------------------------------------
A--------------------5-5-5-5----3-3-3-3--5-5-5-5-----
D--5-5-5-5-5-5-5-5-----------------------------------
Intro

1------------|
2------------|
3---55-77----|
4------------|

Verse
1---------------------------------------
2---------------------------------------
3--7-7-77-77--5-5-55-55--3-3-33-33-0-2-- X2
4-------------------------------------32

1---------------------------|
2-----45----45----45-7-5-4--|
3--77----55----33----------5| X2
4---------------------------|

Pre-chorus
1-------------------------------|
2-------------------------------|
3-55-55-55--33-3-33--55-5-555555|
4-------------------------------|
Chorus
1--------------------------------------|
2--------------------------------------|
3-------------33-33-33----------55-55-5|
4-00-00-000-0----------33-33-33--------| X3

Intro
Verse
Chorus
Guitar solo (No bass)
Intro

2-3-4 bit
1-----------------------|
2-----------------------|
3-3-3-3-3-5-5-555-555555|
4-----------------------|

Chorus

Chorus Variation (were the kids)
1----------------------------------------|
2----------------------------------------|
3-7-7-77-77-----------3-3-33-33----------|
4-----------3-3-33-33-----------5-5-55-55|X6ish
Intro again

Thats it
Artist: American hi-fi
Song title: the art of losing
tabbed by CRAZYFRENCHY
Standard tunning (EADGBe)

Neither of tabs are really good so i decided to tab it.
I think it's 100% correct. One suggestion, crazyfrenchy41@netscape.net. Enjoy it

Intro/Verse guitar 1
e|---------------------------------------------------------------------------|
B|---------------------------------------------------------------------------|
G|-7-7/9-9-------------------------------------------------------------------|
D|-7-7/9-9-------------------------------------------------------------------|
A|-5-5/7-7-------------------------------------------------------------------|
E|---------------------------------------------------------------------------|
Guitar 2
e|---------------------------------------------------------------------------|
B|---------------------------------------------------------------------------|
G|-9-9--7-7-5-5--9-9--------7--7--7--5--5--7-7-------------------------------|
D|-9-9--7-7-5-5--9-9--x2----7--7--7--5--5--7-7-------------------------------|
A|-7-7--5-5-3-3--7-7--------5--5--7--3--3--5-5-------------------------------|
E|---------------------------------------------------------------------------|

Pre-chorus
e|---------------------------------------------------------------------------|
B|---------------------------------------------------------------------------|
G|---------------------------------------------------------------------------|
D|-7-7-7-7-7-7-7-7--10-10-10-10--12-12-12-12---------------------------------|
A|-7-7-7-7-7-7-7-7--10-10-10-10--12-12-12-12---------------------------------|
E|-5-5-5-5-5-5-5-5--8--8--8--8---8--8--8--8----------------------------------|

Chorus
e|---------------------------------------------------------------------------|
B|---------------------------------------------------------------------------|
G|-----5-5-----7-7-------5-7-------------------------------------------------|
D|-2-2-5-5-5-5-7-7--x3-5-5-7-------------------------------------------------|
A|-2-2-3-3-5-5-5-5-----5-3-5-------------------------------------------------|
E|-0-0-----3-3---------3-----------------------------------------------------|

Bridge
|---------------------------------
|---------------------------------
|---------------------------------
|----------10-------------12---14-
|----10-------------12------------
|-10----10-------12----12---------

|--------------------------------
|--------------------------------
|--------------------------------
|----------10----------10-----12-
|----10-------------12----12--12-
|-10----10------/12-----------12-

intro

bridge 2 (pre-chorus 2)
|---------------------------------------------------------
|---------------------------------------------------------
|----------------------7-7-7-7-7-7-7-7-7-7-7-7-7-7--------
|-10-10-10-10-10-10-10-7-7-7-7-7-7-7-7-7-7-7-7-7-7--------
|-10-10-10-10-10-10-10-5-5-5-5-5-5-5-5-5-5-5-5-5-5--------
|-8--8--8--8--8--8--8-------------------------------------

Chorus

Were the kids, were the kids, were the kids in america...
e|---------------------------------------------------------------------------|
B|---------------------------------------------------------------------------|
G|----7-5-7------------------------------------------------------------------|
D|-5--7-5-7------------------------------------------------------------------|
A|-5--5-3-5------------------------------------------------------------------|
E|-3-------------------------------------------------------------------------|