Amorphis — Karelia

Strings 1 & 2 for Guitar 1 (12-string acous.)
Strings 3-6 for Guitar 2 (6 string acous.)

Fig.1 Em
|-7-5-7--0-2-3-0--7-5-7--0-2-3-0--7-5-7--0-2-3-0--7-5-7--0-2-3-0
|-8-7-8--0-0-5-0--8-7-8--0-0-5-0--8-7-8--0-0-5-0--8-7-8--0-0-5-0
----------------------------------------------------
|-9-7-9--2-4-5-2--9-7-9--2-4-5-2--9-7-9--2-4-5-2--9-7-9--2-4-5-2
|-7---------------7---------------7---------------7-------------
|-0---------------0---------------0---------------0-------------

Fig.2 Am

|-12-10-12--5-7-8 -5--12-10-12--5-7-8- 5--12-10-12--5-7-8 -5--12-10-12--5-7-8 -5
|-13-12-13--5-5-10-5--13-12-13--5-5-10-5--13-12-13--5-5-10-5--13-12-13--5-5-10-5
|-9 -7 -9 --2-4-5 -2--9 -7 -9 --2-4-5 -2--9 -7 -9 --2-4-5 -2--9 -7 -9 --2-4-5 -2
|-7-------------------7-------------------7-------------------7-----------------
|-0-------------------0-------------------0-------------------0-----------------
--------------------------------------------------------------------

Play Fig.1 and Fig.2. Repeat Fig.1 and slow down the last notes.

"The sound of thousand warriors, The fields of thousand battles.
Still, in our hearts we can hear the great hymn of Karelia."