Amorphis — Light My Fire

Intro
e------------------------------------------------------
B------------------------------------------------------
G-------7-7-------3-3-------7-7------------------------
D--5-5--7-7--3-3--3-3--5-5--7-7--3-3-3-3-3-3-3-3-3-----
A--5-5--5-5--3-3--1-1--5-5--5-5--3-3-3-3-3-3-3-3-3-----
E--3-3-------1-1-------3-3-------1-1-1-1-1-1-1-1-1-----

Verse
e------------------------------------------------------
B------------------------------------------------------
G-2-2-2-2-2-2-2-2--------------------------------------
D-2-2-2-2-2-2-2-2--4-4-4-4-4-4-4-4---------------------
A-0-0-0-0-0-0-0-0--4-4-4-4-4-4-4-4---------------------
E------------------2-2-2-2-2-2-2-2---------------------

Chorus
e--------------------------------------------------------------
B--------------------------------------------------------------
G----------2-2--7-7-7-7-7-7-7-7-----------2-2--7-7-7--4-4-4-4--
D-5-5-5-5--2-2--7-7-7-7-7-7-7-7--5-5-5-5--2-2--7-7-7--4-4-4-4--
A-5-5-5-5--0-0--5-5-5-5-5-5-5-5--5-5-5-5--0-0--5-5-5--2-2-2-2--
E-3-3-3-3------------------------3-3-3-3-----------------------

e------------------------------------------------------
B------------------------------------------------------
G----------7-7-----------------------------------------
D-5-5-5-5--7-7--2-2-2-2-2-2-2-2-2-2-2-2-2-2-2-2--------
A-5-5-5-5--5-5--2-2-2-2-2-2-2-2-2-2-2-2-2-2-2-2--------
E-3-3-3-3-------0-0-0-0-0-0-0-0-0-0-0-0-0-0-0-0--------