Amorphis — My Kantele

Tune down 1 whole step

Rhy Fig. 1
let ring throughout
e:---------------------------------------------------------------------------|
B:--3-----3---3--------3--3-----3----------------------3--3-----3------------|
G:--2-----0---0h2p0----0----0-----0--------------------2----2-----2----------|
D:--0--3--0---------3--2------2------3--2h3p2p0--3-2---0------0--------------|
A:---------------------------------------------------3-----------------------|
E:---------------------------------------------------------------------------|

Rhy Fig 2 w/Rhy. Fig 1
D5 C5 G5 lotsa times Rhy.Fig. 3
listen to the chords
e:---------------------------------------------------------------|
B:---------------------------------------------------------------|
G:---------------------------------------------------------------|
D:------------------------------|--7--7-7-7--5-5-5---5--5-5-5--3-3-3---3--3-3|
A:------------------------------|--5--5-5-5--5-5-5---5--5-5-5--5-5-5---5--5-5|
E:---------------------------------------------------------------|

x5 Chords Clean part (listen yourself
I´m too lazy)
e:---------------------------------------------------|
B:---------------------------------------------------|
G:---------------------------------------------------|
D:-3--2-2-2---3p2------------------------------------|
A:-5--5-5-5-------5-3-3/5~---------------------------|
E:---------------------------------------------------|

x5
chords w/Rhy Fig 3 w/Rhy Fig 3 up 3 frets
Gtr II ends with:
e:----------------------|
B:----------------------|
G:---------|--5p3-------------------|
D:---------|------6-5-6~------------|
A:----------------------|
E:----------------------|

Outro

e:---------------------------------------------------|
B:---------------------------------------------------|
G:---------------------------------------------------|
D:--6p5---------6p5--------6p5---------6p5-----------|
A:------8-6-8~------8-6--------8-6-4~------8-6-6~----|
E:----------------------8~---------------------------|

e:---------------------------------------------------|
B:---------------------------------------------------|
G:--5p3---------5p3--------5p3---------5p3-----------|
D:------6-5-6~------6-5--------6-5---------6-5-------|
A:----------------------3~---------4~----------6~----|
E:---------------------------------------------------|

w/ Outro
e:------------------------------------|
B:------------------------------------|
G:------------------------------------|
D:----10--------------6------8----|--6-5h6p5------|
A:--8----8----10----4---4--6---6--|----------8-6-8|
E:----------8----8--------------------|

e:------------------------------------|
B:------------------------------------|
G:--------------------------------|--5-3h5p3------|
D:--------------------------------|----------6-5-6|
A:------------------------------------|
E:------------------------------------|