Anathema — Are You There

are you there ?

by Anathema
from the fabulous new album 'a natural disater '


transcribed by Christian Reindel(creindel@gmx.de)
any questions or corrections- e-mail me

a very beautiful song !!!


mainchords - play the whole song - use a flanger or other spaceeffects
for your guitar to imitate the keyboards

D F Bb D A Bb
E---------------------------------------------------------------
B---------------------------------------------------------------
G--7--------10---------------7----------------------------------
D-------------------8----------------7--------8-----------------
A---------------------------------------------------------------
E---------------------------------------------------------------

guitar solo
3 times

E-6--6-6--5--5-5--3--3-3--1-1------6--6-6--5--5-5--3--3-3--1-1------9--9-9--6--6-6/5--3--3-3/5--1-
B-------------------------------------------------------------------------------------------------
G-------------------------------------------------------------------------------------------------
D-------------------------------------------------------------------------------------------------
A-------------------------------------------------------------------------------------------------
E-------------------------------------------------------------------------------------------------

1 time

E-6--6-6--5--5-5--9--9-9--5--5-5----6--6-6--5--5-5---9--9-9--5--5-5----6--6-6--9-5-5--3--3-3/5--1-
B--------------------------------------------------------------------------------------------------
G--------------------------------------------------------------------------------------------------
D--------------------------------------------------------------------------------------------------
A--------------------------------------------------------------------------------------------------
E--------------------------------------------------------------------------------------------------


end.