Anathema — One Last Goodbye

На этой странице Вы можете ознакомиться с 2 версиями подбора аккордов для гитары к песне "One Last Goodbye" группы (исполнителя) "Anathema".

(x2) Acoustic guitar		   1st time         2nd time
|-3---3---2-0---0---2-0---0---2---|-2-0------------|-2-0---------------------|
|-0-0---0---0-0---0---0-0---0---0-|-0---0--0---0-0-|-0---0-0---0-0--0-0------|
----------0-----------|-2------4-2---4-|-2-----4-2---4-2--3------|
----------------------|--------0-----4-|-------0----------4------|
-------------------------2---4----4------|
----------------------------------2------|
(A 2nd guitar play easy armonics! Donґt get crazy!)

(repeat 3 times)
---------------|
|----------0-----0---------|
-0-------------|
|-74----4-----------4-----|
|-52--2-------2---------2-|
---------------|

How I needed you -> How I grieve now you're gone
In my dreams I see you -> I awake so alone
|---0-0000-0000-| ---------------------|
|---0-0000-0000-| -------0-----0-------|
(x2)|---0-0000-0000-|(x2)---------0-----------|
|-4-5-5555-5555-| |---------74----4----------4----|
|-4-5-5555-5555-| |---------52--2-------2-------2-|
|-2-3-3333-3333-| ---------------------|

(But if youґre ---------------|
singing this ---------------|
sound better) ...(x2)|------7-4-4444-4444-------|
|------7-4-4444-4444-------|
|------5-2-2222-2222-------|
---------------|

I know you didn't want to leave -> Your heart yearned to stay
But the strength I always loved in you -> Finally gave way
|---0-0000-0000-|-0-0-0000-0000-|----------2-2222-2222-|-0-0000-0000-|
|---0-0000-0000-|-0-0-0000-0000-|----------3-3333-3333-|-2-2222-2222-|
(x2)|---0-0000-0000-|-0-0-0000-0000-|--------7-4-4444-4444-|-2-2222-2222-|
|-4-5-5555-5555-|-5-2-2222-2222-|--------7-4-4444-4444-|-2-2222-2222-|
|-4-5-5555-5555-|-5-2-2222-2222-|--------5-2-2222-2222-|-0-0000-0000-|
|-2-3-3333-3333-|-3-0-0000-0000--------------|

Somehow I knew you would leave me this way
|-3-3333-3333-3333-3333-|-2-2222-2222-2-0-0000-0000-|
|-0-0000-0000-0000-0000-|-3-3333-3333-3-2-2222-2222-|
|-0-0000-0000-0000-0000-|-4-4444-4444-4-2-2222-2222-|
|-2-2222-2222-2222-2222-|-4-4444-4444-4-2-2222-2222-|
|-2-2222-2222-2222-2222-|-2-2222-2222-2-0-0000-0000-|
|-0-0000-0000-0000-0000-----------------|

Somehow I knew you could never, never stay
And in the early morning light After a silent peaceful night
You took my heart away And I grieve
|-0-0000-0000-0000-0000|-------2-2222-2222-2-0-0000-0000-|
|-0-0000-0000-0000-0000|-------3-3333-3333-3-2-2222-2222-|
|-0-0000-0000-0000-0000|-------4-4444-4444-4-2-2222-2222-|
|-2-2222-2222-2222-2222|-------4-4444-4444-4-2-2222-2222-|
|-2-2222-2222-2222-2222|-------2-2222-2222-2-0-0000-0000-|
|-0-0000-0000-0000-0000----------------------|

In my dreams I can see you, I can tell you how I feel.
In my dreams I can hold you, and it feels so real.
(Distortion)
---------------------------------|
---------------------------------|
(x2)-----------|--------7-4-----4-------7-4---4--|
|-4-5--5-------4-5---5-|--------7-4-----4-------7-4---4--|
|-4-5--5-------4-5---5-|--------5-2-----2-------5-2---2--|
|-2-3--3-------2-3---3-----------------------|

I still feel the pain, I still feel your love
I still feel the pain, I still feel your love
-------------------------|
-------------------------|
(x2)-----------|--------7-4----4-------2-|
|-4-5--5-------5-2---2-|--------7-4----4-------2-|
|-4-5--5-------5-2---2-|--------5-2----2-------0-|
|-2-3--3-------3-0---0---------------|

And somehow I knew you could never, never stay
--------------------------|
--------------------------|
-----------4------------2-|
|-5-----5--------------4------------2-|
|-5-----5--------------2------------0-|
|-3-----3-----------------------------|

And somehow I knew you would leave me
--------------------------|
--------------------------|
-----------7------------2-|
|-2-----2--------------7------------2-|
|-2-----2--------------5------------0-|
|-0-----0-----------------------------|

And in the early morning light,after a silent peaceful night.
------------------------------------|
------------------------------------|
------------------4---------------2-|
|-2------------------2--------4---------------2-|
|-2------------------2--------2---------------0-|
|-0------------------0--------------------------|

You took my heart away. Oh, I wished, I wished you could have stayed.
---------------------------|
---------------------------|
---------------7---------2-|
|-2-----------------2------7---------2-|
|-2-----------------2------5---------0-|
|-0-----------------0------------------|


Solo E5 B5 A5 E5
-----------------------------------------------------------------|
-14-15-----------------------------------------------------------|
|14-14~~--16-------14-14/12-11~--12-14--------------------------------------|
---------------------------14~~-slide down--14bf(16)14~-12------|
------------------------------------------------------------14---|
-----------------------------------------------------------------|

D5
-----------------------------------------------------------------|
-----------------------------------------------------------------|
-----------------------------------------------------------------|
|-12h14~~-slide down-----12-14-12----12-14-14bf(16)14-12----12-14bf(16)14~--|
-----------14----------14---------------------14-----------------|
-----------------------------------------------------------------|

A5 E5 B5
----------------------------------------------17~-15h17p15p14h15|
----------------17-------17------17----17----17------------------|
--------14-14~----14-14----14-14---14----14---------------------|
|-12-12h1412p11--------------------------------------------------------------|
----12~----------------------------------------------------------|
-----------------------------------------------------------------|

A5 E5 D5 F#5
|p14-------------------------------------------------------------------------|
|---15-----------------------------------------------------------------------|
|------14bf(16)14~~-12-11bf(12)--(11bh)12backto11----12-11-------------------|
-------------------14~----------------14~-----12~-14p12p11~-119~|
-----------------------------------------------------------------|
-----------------------------------------------------------------|

End (F#5-G5-G5-A5-D5-B5-D5-B5-D5-B5-B5-G5 (With the B5 riff))
ANATHEMA - ONE LAST GOODBYE
From the Album JUDGEMENT
Version 1.0 - JANUARY 2001

Transcribed by: HARIS DURAKOVIC (THE FOREVERLORN)

For Questions, Comments, Newest Version, or Corrections contact
HARIS DURAKOVIC at: foreverlorn@gmx.de

Check Out Death Warp, With More Transcriptions On It:
http://tiger.towson.edu/~dalvis1

.. - palm mute / - slide up to
- slide down to ~ - vibrato
h - hammer on b - bend
p - pull off Suffixes for bend
ph - pinch harmonic
f - full bend h - half bend
* - see comment r - release t - tap bend
X - percussion mute ~ - vibrato bend
@ - slight palm mute () - ghost note, sustained note

ANATHEMA - One last goodbye

|-3---3---2-0---0---2-0---0---2---|-2-0------------|-2-0---------------------|
|-0-0---0---0-0---0---0-0---0---0-|-0---0--0---0-0-|-0---0-0---0-0-0---------|
|---------------------0-----------|-2------4-2---4-|-2-----4-2---4-3---------|
|---------------------------------|--------0-----4-|-------0-------4---------|
|---------------------------------|--------------2-|-------------4-4---------|
|---------------------------------|----------------|---------------2---------|


|------------------------|---0-0000-0000-|---0-0000-0000-0-0-0000-0000-------|
|----------0-----0-------|---0-0000-0000-|---0-0000-0000-0-0-0000-0000-------|
|------------0-----0-----|---0-0000-0000-|---0-0000-0000-0-0-0000-0000-------|
|-74----4-----------4---|-4-5-5555-5555-|-4-5-5555-5555-5-2-2222-2222-------|
|-52--2-------2-------2-|-4-5-5555-5555-|-4-5-5555-5555-5-2-2222-2222-------|
|------------------------|-2-3-3333-3333-|-2-3-3333-3333-3-0-0000-0000-------|


|-0-2-2222-2222-2-0-0000-0000-|-0-0-00-0-00-0-00-0-00-2-2-22-2-2-22----------|
|-0-3-3333-3333-3-2-2222-2222-|-0-0-00-0-00-0-00-0-00-3-3-33-3-3-33----------|
|-0-4-4444-4444-4-2-2222-2222-|-0-0-00-0-00-0-00-0-00-4-4-44-4-4-44----------|
|-2-4-4444-4444-4-2-2222-2222-|-5-5-55-5-55-5-55-5-55-4-4-44-4-4-44----------|
|-2-2-2222-2222-2-0-0000-0000-|-5-5-55-5-55-5-55-5-55-2-2-22-2-2-22----------|
|-0---------------------------|-3-3-33-3-33-3-33-3-33------------------------|


|-0-0-00-0-0-00-|-----------------------0--------0---------------------------|
|-2-2-22-2-2-22-|-----------------------0--------0---------------------------|
|-2-2-22-2-2-22-|--2nd time instead of -0--play -0---------------------------|
|-2-2-22-2-2-22-|-----------------------5--------2---------------------------|
|-0-0-00-0-0-00-|-----------------------5--------2----.......----------------|
|---------------|-----------------------3--------0---------------------------|

electronic
|--------------------|------------------|------------|-----------------------|
|--------------------|------------------|------------|-----------------------|
|-----------7-4--7-4-|-----------7-4--2-|-------4--2-|-------7--2------------|
|-4-5--4-5--7-4--7-4-|-4-5--5-2--7-4--2-|-5--5--4--2-|-2--2--7--2------------|
|-4-5--4-5--5-2--5-2-|-4-5--5-2--5-2--0-|-5--5--2--0-|-2--2--5--0------------|
|-2-3--2-3-----------|-2-3--3-0---------|-3--3-------|-0--0------------------|


|----------|
|----------|
|----4--2--|
|-2--4--2--|
|-2--2--0--|
|-0--------|

Solo
|----------------------------------------------------------------------------|
|------------14-15-----------------------------------------------------------|
|-14~~----16-------14--12-11~--12-14-----------------------------------------|
|------------------------------------14~~-slide down--14bf(16)14~-12--------|
|---------------------------------------------------------------------14-----|
|----------------------------------------------------------------------------|


|----------------------------------------------------------------------------|
|----------------------------------------------------------------------------|
|----------------------------------------------------------------------------|
|-12h14~~-slide down-----12-14-12----12-14-14bf(16)14-12----12-14bf(16)14~--|
|----------------------14----------14---------------------14-----------------|
|----------------------------------------------------------------------------|


|---------------------------------------------------------17~-15h17p15p14----|
|---------------------------17-------17----17----17----17-----------------15-|
|--------------------14-14~----14-14----14----14----14-----------------------|
|-12-12h1412p11--------------------------------------------------------------|
|---------------12~----------------------------------------------------------|
|----------------------------------------------------------------------------|


|----------------------------------------------------------------------------|
|----------------------------------------------------------------------------|
|-14bf(16)14~~---12-11-----(11bh)12backto11-----12-11------------------------|
|----------------------14~------------------14~-------12~-14p12p11~--119~---|
|----------------------------------------------------------------------------|
|----------------------------------------------------------------------------|

Check Out Death Warp, With More Transcriptions On It:
http://tiger.towson.edu/~dalvis1