Anathema — Youre A Slave

Artist:  Anathema
Song: You’re a slave
Tuning: Normal (E,A,D,G,B,E)
Tabbed by: Chris R.
Email: Littlegothboy@aol.com

*This tab is 100% correct. Since I wrote it might be. It’s very cool and very
heavy and awesome to play. So here it is and stuff. Every thing is there except
the chorus which is to complicated to tab.

X=muted
/=slide
p=pull off
h=hammer on

[Intro] heavy distortion
E-------------------------------------------------------------------------------
B-------------------------------------------------------------------------------
G-------------------------------------------------------------------------------
D-------------------------------------------------------------------------------
A-xx-0-xx-1-xx-0-2-2-1----------------------------------------------------------
E-xx-0-xx-1-xx-0-2-2-1----------------------------------------------------------
Play that 2x

[ VERSE]
E-------------------------------------------------------------------------------
B-------------------------------------------------------------------------------
G-------------------------------------------------------------------------------
D-------------------------------------------------------------------------------
A-2-2-2-2-2-2-2-2-2-2-2-2-3-3-2-3-3-2-3-3-2-------------------------------------
E-0-0-0-0-0-0-0-0-0-0-0-0-3-3-0-3-3-0-3-3-0-------------------------------------

E-------------------------------------------------------------------------------
B-------------------------------------------------------------------------------
G-------------------------------------------------------------------------------
D-------------------------------------------------------------------------------
A-2-2-x-2-x-2-2h3-2-2-x-2-x-2-x-2-2h3-2-2---------------------------------------
E-0-0-x-0-x--------------x-0-x-0-x--------------3-0-----------------------------

E-------------------------------------------------------------------------------
B-------------------------------------------------------------------------------
G-------------------------------------------------------------------------------
D-------------------------------------------------------------------------------
A-2-2-2-2-2-2-2-2-2-2-2-2-3-3-2-3-3-2-3-3-2-------------------------------------
E-0-0-0-0-0-0-0-0-0-0-0-0-3-3-0-3-3-0-3-3-0-------------------------------------

E-------------------------------------------------------------------------------
B-------------------------------------------------------------------------------
G-------------------------------------------------------------------------------
D-------------------------------------------------------------------------------
A-2-2-x-2-x-2-2h3-2-2-x-2-x-2-x-2-2h3-2-2---------------------------------------
E-0-0-x-0-x--------------x-0-x-0-x--------------3-0-----------------------------

E-------------------------------------------------------------------------------
B-------------------------------------------------------------------------------
G-------------------------------------------------------------------------------
D------------------------------------------------------------------------------
A-2-2-2-2-2-2-2-2-2-2-2-2-3-3-2-3-3-2-3-3-2-------------------------------------
E-0-0-0-0-0-0-0-0-0-0-0-0-3-3-0-3-3-0-3-3-0-------------------------------------

E-------------------------------------------------------------------------------
B-------------------------------------------------------------------------------
G-------------------------------------------------------------------------------
D-------------------------------------------------------------------------------
A-3-3-3-3-2-2-3-3-2-3-3-3-3-2-2-2-2-3-3-2---------------------------------------
E-3-3-3-3-0-0-3-3-0-3-3-3-3-0-0-0-0-3-3-0---------------------------------------

E-------------------------------------------------------------------------------
B-------------------------------------------------------------------------------
G-------------------------------------------------------------------------------
D-------------------------------------------------------------------------------
A-3-3-3-3-2-2-3-3-2-3-3-3-3-2-2-2-2-3-3-3-3-2-2-2-2-3-3-3-3-2-2-2-2-------------
E-3-3-3-3-0-0-3-3-0-3-3-3-3-0-0-0-0-3-3-3-3-0-0-0-0-3-3-3-3-0-0-0-0-------------

E-------------------------------------------------------------------------------
B-------------------------------------------------------------------------------
G-------------------------------------------------------------------------------
D-------------------------------------------------------------------------------
A-3-3-3-3-2-2-3-3-2-3-3-3-3-2-2-2-2-3-3-2---------------------------------------
E-3-3-3-3-0-0-3-3-0-3-3-3-3-0-0-0-0-3-3-0---------------------------------------

- thats it so fari'll put the chorus on there when i figure out howi'm gonna do it- Chris