Ancient — Um Sonho Psychodelico

ANCIENT - UM SONHO PSYCHODELICO
From The Album: Mad Grandiose Bloodfiends

Tabbed by: Arto Osterman 22.9.1999
E-mail: thornofsin@hotmail.com


Tuning: standard


Marking:

Palm mute: ...
Slide up: /
Slide down:


Riff 1:

|-------------------------------------------------------------------
|-------------------------------------------------------------------
|-------------------------------------------------------------------
|-7--7-7-7-7-7-7-7-7-7-7-7-7-7-7---8-8-8-8-8-8-8-8-8-8-8-8-8-8-8-8--
|-5--5-5-5-5-5-5-5-5-5-5-5-5-5-5---6-6-6-6-6-6-6-6-6-6-6-6-6-6-6-6--
|-------------------------------------------------------------------
. . . . . . . . . . . . . . . . . . . . . . . . . . . . . .


---------------------------------------------------------------------|
---------------------------------------------------------------------|
---------------------------------------------------------------------|
--7-7-7-7-7-7-7-7-7-7-7-7-7-7-7-7---5-5-5-5-5-5-5-5-5-5-5-5-5-5-5-5--|
--5-5-5-5-5-5-5-5-5-5-5-5-5-5-5-5---4-4-4-4-4-4-4-4-4-4-4-4-4-4-4-4--|
---------------------------------------------------------------------|
. . . . . . . . . . . . . . . . . . . . . . . . . . . . . . . .


Riff 2:

|--------------------------------------------------------------------
|--------------------------------------------------------------------
|--------------------------------------------------------------------
|-7-77--7-77--7-77-7-77--7-7--7-7--8-88--8-88--8-88-8-88--8-8--8-8---
|-5-55--8-88--5-55-5-55--5-5--5-5--6-66--9-99--6-66-6-66--6-6--6-6---
|--------------------------------------------------------------------
.. .. .. .. . . .. .. .. .. . .


-----------------------------------------------------------------|
-----------------------------------------------------------------|
-----------------------------------------------------------------|
-7-77--7-77--7-77-7-77--7-7--7-7--5-55-5-55-5-55-5-55--5-5--5-5--|
-5-55--8-88--5-55-5-55--5-5--5-5--4-44-4-44-4-44-4-44--4-4--4-4--|
-----------------------------------------------------------------|
.. .. .. .. . . .. .. .. .. . .


Riff 3:

|---------------------------------------------------------|
|---------------------------------------------------------|
|---------------------------------------------------------|
|---------------------------------------------------------|
|-11-11-116-6-5-55-12-1212-11-11-111111--14-15-14-12-11--|
|-9--9--9-4-4-3-33-10-1010-9--9--9-9-9---12-13-12-10-9---|


Riff 4:

|-----------------------------------------------------------
|-----------------------------------------------------------
|-----------------------------------------------------------
|-77-7-77-7-7-7-77-7-77-7-7-7--88-8-88-8-8-8-88-8-88-8-8-8--
|-55-5-55-5-5-5-55-5-55-5-5-5--66-6-66-6-6-6-66-6-66-6-6-6--
|-----------------------------------------------------------
.. .. . .. .. . .. .. . .. .. .


-----------------------------------------------------------|
-----------------------------------------------------------|
-----------------------------------------------------------|
-77-7-77-7-7-7-77-7-77-7-7-7--55-5-55-5-5-5-55-5-55-5-5-5--|
-55-5-55-5-5-5-55-5-55-5-5-5--44-4-44-4-4-4-44-4-44-4-4-4--|
-----------------------------------------------------------|
.. .. . .. .. . .. .. . .. .. .

Riff 3 again

Riff 5:

|--------------------------------------------------|
|--------------------------------------------------|
|--------------------------------------------------|
|-9-9-94-4-3-33-101010-9--9-9-999--12-13-12-10-9--|
|-7-7-72-2-1-11-8-8-8--7--7-7-777--10-11-10-8--7--|
|--------------------------------------------------|



Riff 3 again with tremolo pick.