And You Will Know Us By The Trail Of Dead — When We Begin To Steal

And you will know us by the trail of dead
when we begin to steal...
tabbed by paul gilbert
any comments
optimusprime19@hotmail.com

* = let ring


part 1
G:|--------|--------|--------|--------|
D:|--------|--------|--------|--------|
A:|3---5---|1---8---|1-------|--------|
E:|--------|--------|----4---|3-3-3-3-|

part 2
G:|--------|--------|--------|--------|
D:|5-------|--------|5-------|--------|
A:|--------|--------|--------|--------|
E:|--------|--------|--------|--------|

part 3
G:|--------|--------|--------|--------|
D:|--------|--------|--------|--------|
A:|7-777777|77777777|5-555555|55555555|
E:|--------|--------|--------|--------|

part 4
G:|--------|--------|--------|--------|
D:|--------|--------|--------|--------|
A:|7-777777|77777777|5-555555|3-------|
E:|--------|--------|--------|--------|

part 5
G:|--------|--------|--------|----------------|
D:|--------|--------|--------|----------------|
A:|7-777777|77777777|5-555555|5---5---555-5-55|
E:|--------|--------|--------|----------------|
The last bar i have extended out because there are
some faster notes in here

part 6
G:|----------------|----------------|----------------|----------------|
D:|----------------|---------*------|----------------|----------*--*--|
A:|7-7-7-7-7-7-7-7-|7-7-10-12-10-9-7|5-5-5-5-5-5-5-5-|5-5-5-5-10--9---|
E:|----------------|----------------|----------------|----------------|
These parts may not be right but its a good place to improvise
this is what i play.

part 7
G:|----------------|----------------|----------------|----------------|
D:|----------------|---------*------|----------------|----------------|
A:|7-7-7-7-7-7-7-7-|7-7-10-12-10-9-7|5-5-5-5-5-5-5-5-|3---------------|
E:|----------------|----------------|----------------|----------------|

order
bass comes in at approx 10 sec
part1 x 6
part2 x 2
part3 x 3
part4 x 1
part1 x 8
part2 x 2
part3 x 3
part5 x 1
part6 x 7
part7 x 1