Andrew W K — Party Hard

На этой странице Вы можете ознакомиться с 7 версиями подбора аккордов для гитары к песне "Party Hard" группы (исполнителя) "Andrew W K".

Party hard- Andrew W K


*When it's time to party we will party hard* E5lo

Intro:
(E5lo) Eb5 E5 E5
Riff:
E----4-0---5-0----7-0----11-12-12----
B------------------------------------
G-------------------------8--9--9----
D----2--------------------9--9--9----
A----2--------------------6--7--7----
E----0-------------------------------

E----4-0---5-0----7-0----14-16-12----
B------------------------------------
G------------------------------------
D----2-------------------------------
A----2-------------------------------
E----0-------------------------------

Main Power chord riff for verse:

E5 E5 E5 E5 E5 E5 B5

A5 A5 A5 Ab5 Ab5 Ab5

F#5 F#5 F#5 C#5 B5 B5 B5 Eb5 E5 (repeat)

Verse:

E5 E5 E5 E5 E5 E5 B5 A5 Ab5 F#5
You, You work all night (all night)

F#5 C#5 B5 Eb5 E5
And when you work you don't feel all right
(same as previous)
And we, We can't stop feeling all right (all right)
And everything is all right


E5 D5 C5 B5
'Cos we will never listen to your rules (no)
E5 D5 C5 B5
We will never do what others do (no)
E5 D5 C5 B5
Do what we want and we get it from you
A5 B5 B5 B5 Eb5 E5
Do what we like and we like what we do

Chorus:
E5 A5 Ab5 A5 Ab5
So let's get a party going (let's get a party going)
E5 A5 D5 A5
Now it's time to party and we'll party hard (party hard)
E5 A5 Ab5 A5 Ab5
Let's get a party going (let's get a party going)
E5 B5 Ab5 E5
When it's time to party we will always party hard
E5 A5 E5 A5 E5
Party hard (party hard, party hard, party hard party hard,
party hard, party hard party hard, party hard, party hard...)

A5 B5 E5
All right!

Verse chords:

You, You break the thing
And when you play you feel all right
But we, We can't stop feeling all right (all right)
And everything is all right

(same chords as above)
'Cos we will never listen to your rules (no)
We will never do what others do(no)
Know what we want and we get it from you
We do what we like and we like what we do

Chorus:
So let's get a party going (let's get a party going)
Now it's time to party and we'll party hard (party hard)
Let's get a party going (let's get a party going)
When it's time to party we will always party hard
Party hard (party hard, party hard, party hard party hard, party hard,
party hard party hard, party hard, party hard party hard, party hard, party
hard...)

This is my second tab,
let me know if it's any good.
cheers.
-dan

Daniel_frampton@canada.com
intro:
e:----------------------------------------------------------
a:----------------------------------------------------------
d:---7-3--8-3--9-3-983----7-3--8-3--9-3-983-----------------
g:----------------------------------------------------------

verse:
e:----------------------------------------------------------
a:-------0--------------2-000-4-------0--------------2-0045-
d:---------333-222-00000----------------333-222-00000-------
g:-33333------------------------33333-----------------------

repeat this!

i cant belisve no one tabbed this sick song already!
this is a rad song so try it, its easy once youve got the hang of it. e-mail me @ kornsk8@aol.com if you have any problems or you want any songs.

by chris the bass man from england!

peace! (please rate this so i can see what you think)
E -
B --------------------------------------------
G --------------------------------------------
D -33333333333333-33333333333333--------------
A -33333333333333-33333333333333--------------
D -33333333333333-33333333333333--------------

E --------------------------------------------
B --------------------------------------------
G --------------------------------------------
D -2-2-2-2-2-9-7-7-7-6-6-6-5-5-5-10-9-9-9-10--
A -2-2-2-2-2-9-7-7-7-6-6-6-5-5-5-10-9-9-9-10--
D -2-2-2-2-2-9-7-7-7-6-6-6-5-5-5-10-9-9-9-10--

E --------------------------------------------
B --------------------------------------------
G --------------------------------------------
D -7-3-8-3-10-3-10-14-14-7-3-8-3-10-3-10-14-12-
A --------------10-14-14--------------10-14-12-
D --------------10-14-14--------------10-14-12--
Intro
G)11-7---12-7---14-7---9-11-11---11-7---12-7---14-7---9-7-7(
D)---------------------------------------------------------(
A)---------------------------------------------------------(
E)---------------------------------------------------------(

Verse
G)-------------------------------(
D)-00000-7-555-444--22222-9-777-9(
A)-------------------------------(
E)-------------------------------(
Intro
E -----------------------------------------------
B -----------------------------------------------
G -----------------------------------------------
D -22222222222222-22222222222222-----------------
A -22222222222222-22222222222222-----------------
E -00000000000000-00000000000000-----------------

Sub-Intro
E -----------------------------------------------
B -----------------------------------------------
G -------------------------------------11-11-13-9
D -6-2-7-2-9-2-13-13-14-14-6-2-7-2-9-2-----------
A -----------------------------------------------
E -----------------------------------------------

Verse
E -----------------------------------------------
B -----------------------------------------------
G -----------------------------------------------
D -2-2-2-2-2-9-7-7-7-6-6-6-4-4-4-11-99999999/14--
A -2-2-2-2-2-9-7-7-7-6-6-6-4-4-4-11-99999999/14--
E -0-0-0-0-0-7-5-5-5-4-4-4-2-2-2- 9-77777777/12--

PreChorus
E -----------------------------------------------
B -----------------------------------------------
G -9-9-7-7-5-5-5-4-9-9-7-7-5-5-5-4---------------
D -9-9-7-7-5-5-5-4-9-9-7-7-5-5-5-4--------------
A -7-7-9-9-3-3-3-2-7-7-9-9-3-3-3-2---------------
E -----------------------------------------------

E -----------------------------------------------
B -----------------------------------------------
G -9-9-7-7-5-5-5-4-------------------------------
D -9-9-7-7-5-5-5-4-7-7-7-7-7-7-9-9-13-14---------
A -7-7-9-9-3-3-3-2-7-7-7-7-7-7-9-9-13-14---------
E -----------------5-5-5-5-5-5-7-7-11-12---------

Chorus
E -----------------------------------------------
B -----------------------------------------------
G -----------------------------------------------
D --2-2-2-2-7-7-7-7-2-2-2-2-7-7-7-7--------------
A --2-2-2-2-7-7-7-7-2-2-2-2-7-7-7-7--------------
E --0-0-0-0-5-5-5-5-5-5-5-5-5-5-5-5--------------

E -----------------------------------------------
B -----------------------------------------------
G -----------------------------------------------
D -2-2-2-2-7-7-7-7-9-9-9-9-14-14-14-14-----------
A -2-2-2-2-7-7-7-7-9-9-9-9-14-14-14-14-----------
E -0-0-0-0-5-5-5-5-7-7-7-7-12-12-12-12-----------

Structure:

Introx4

Sub-Introx2

Versex4

PreChorusx2

Chorusx2

Versex2

Sub-Introx2

Versex4

PreChorusx2

Chorusx4

This should be right. I think it has everything
Ok my first tab.......

intro:
e|---------------------------------------
b|---------------------------------------
g|---------------------------------------
d|-222222222222--------------------------
a|-222222222222--------------------------
e|-000000000000-for--ages----------------

e|---------------------------------------
b|----------------------7-9--------------
g|-1--2--4--8-99-1--2--4-----9---92-----
d|--2--2--2-----2--2--2------------------
a|---------------------------------------
e|---------------------------------------

verse:
e|---------------------------------------
b|---------------------------------------
g|-------4-222------------4-22222-889----
d|-22222-4-222-6666-44444-4-22222-xxx----
a|-22222-2-000-6666-44444-2-00000-667----
e|-00000-------4444-22222----------------

e|-------------------------------------
b|-------------------------------------
g|-------4-222------------4-22-89------
d|-22222-4-222-6666-44444-4-22-xx-222--
a|-22222-2-000-6666-44444-2-00-67-222--
e|-00000-------4444-22222---------000--

there
-------------------------------------------------------------------------------
PARTY HARD - Andrew W K
-------------------------------------------------------------------------------

Tabbed by: Jeff Gilchrist
Email: beefy_101@hotmail.com

Tuning: Standard E

Intro:
e|---------------------------------------------------------------------------|
B|---------------------------------------------------------------------------|
G|---------------------------------------------------------------------------|
D|-2-------------------------------------------------------------------------|
A|-2-------------------------------------------------------------------------|
E|-0-------------------------------------------------------------------------|
Keep hitting this chord for a while.

e|---------------------------------------------------------------------------|
B|---------------------------------------------------------------------------|
G|-13-9-14-9-16-9-[-20-21]-----[21-22-19]------------------------------------|
D|-x--x-x--x-x--x-[-x--x-]-----[x--x--x-]------------------------------------|
A|-11-7-12-7-14-7-[-18-19]-----[19-20-17]------------------------------------|
E|---------------------------------------------------------------------------|
1st time 2nd time
Just use these chords; strumming not shown. If you don't have a 22nd fret,
then that's a shame. There's probably another way to play it, or even more
likely; I'm wrong.

Verse:
e|---------------------------------------------------------------------------|
B|---------------------------------------------------------------------------|
G|---------------------------------------------------------------------------|
D|-2-9-7-6-4-6-4--[8/9]-------[9-2]------------------------------------------|
A|-2-9-7-6-4-6-4--[x/x]-------[9-2]------------------------------------------|
E|-0-7-5-4-2-4-2--[6/7]-------[7-0]------------------------------------------|
1st time 2nd time
Just chords; strumming not shown.

Pre-Pre-Chorus?: (I dunno what it is)
e|---------------------------------------------------------------------------|
B|---------------------------------------------------------------------------|
G|-9/8/9-7/6/7-5/4/5-4--9/8/9-7/6/7-4-4-9----9/8/9-7/6/7-5/4/5-4-------------|
D|-9/8/9-7/6/7-5/4/5-4--9/8/9-7/6/7-4-4-9-2--9/8/9-7/6/7-5/4/5-4-------------|
A|-7/6/7-5/4/5-3/2/3-2--7/6/7-5/4/5-2-2-7-2--7/6/7-5/4/5-3/2/3-2-------------|
E|----------------------------------------0----------------------------------|

e|---------------------------------------------------------------------------|
B|---------------------------------------------------------------------------|
G|----------------8-9--------------------------------------------------------|
D|-7-7-7-9--9-9-9-8-9--------------------------------------------------------|
A|-7-7-7-9--9-9-9-6-7--------------------------------------------------------|
E|-5-5-5-7--7-7-7------------------------------------------------------------|
I got this part from a tabber named Genius6, and I think it sounds OK.

Pre-Chorus:
e|---------------------------------------------------------------------------|
B|---------------------------------------------------------------------------|
G|--------------------------------------------------7------------------------|
D|-2--2-2-2-2-2-2-7-7-7/6/7-7--2--2-2-2-2-2-2-7-7-7-7-7----------------------|
A|-2--2-2-2-2-2-2-7-7-7/6/7-7--2--2-2-2-2-2-2-7-7-7-5-7----------------------|
E|-0--0-0-0-0-0-0-5-5-5/4/5-5--0--0-0-0-0-0-0-5-5-5---5----------------------|

e|---------------------------------------------------------------------------|
B|---------------------------------------------------------------------------|
G|------------------------------------------------9--------------------------|
D|-2--2-2-2-2-2-2-7-7-7/6/7-7--2--2-2-2-2-2-2-4-9-9--------------------------|
A|-2--2-2-2-2-2-2-7-7-7/6/7-7--2--2-2-2-2-2-2-4-9-7--------------------------|
E|-0--0-0-0-0-0-0-5-5-5/4/5-5--0--0-0-0-0-0-0-2-7----------------------------|

Chorus:
e|---------------------------------------------------------------------------|
B|---------------------------------------------------------------------------|
G|----------------------------------------------------9-9--------------------|
D|-2-2-2-7-7/6/7--2-2-2-7-7/6/7--2-2-2-7-7/6/7--4-4-4-9-9--------------------|
A|-2-2-2-7-7/6/7--2-2-2-7-7/6/7--2-2-2-7-7/6/7--4-4-4-7-7--------------------|
E|-0-0-0-5-5/4/5--0-0-0-5-5/4/5--0-0-0-5-5/4/5--2-2-2------------------------|

e|---------------------------------------------------------------------------|
B|---------------------------------------------------------------------------|
G|------------------------------------------------------9--------------------|
D|-2-2-2-7-7/6/7--2-2-2-7-7/6/7--2-2-2-7-7/6/7--4-4-4-9-9--------------------|
A|-2-2-2-7-7/6/7--2-2-2-7-7/6/7--2-2-2-7-7/6/7--4-4-4-9-7--------------------|
E|-0-0-0-5-5/4/5--0-0-0-5-5/4/5--0-0-0-5-5/4/5--2-2-2-7----------------------|