Andrew W K — Ready To Die

Artist: Andrew WK
Song: Ready To Die
Album: I Get Wet
Tabbed By: NMLuck1 - The First Successful Person To Tab This Intro

Intro
e|--10---------------9-10-----------------9-10------|
B|-----10-7----7-7--------10-10-7-5-10-10-----------|
G|--------------------------------------------------|
D|--------------------------------------------------|
A|--------------------------------------------------|
E|--------------------------------------------------|

And repeat again

e|--10---------------9-10-----------------9-10------|
B|-----10-7----7-7--------10-10-7-5-10-10-----------|
G|--------------------------------------------------|
D|--------------------------------------------------|
A|--------------------------------------------------|
E|--------------------------------------------------|

Then the song will start playing the chords that are the same notes as these