Andrew W K — We Want Fun

На этой странице Вы можете ознакомиться с 3 версиями подбора аккордов для гитары к песне "We Want Fun" группы (исполнителя) "Andrew W K".

Andrew WK - We Want Fun
Submitted By: BassPlayer400
EMail: gbeney@hotmail.com

This might not be right, as it is the first song I've tabbed. Please,
If you see any errors, send them to me, I want to get this song right.

Standard E A D G tuning

Intro

G---------------------------------------------|
D---------------------------------------------| x4
A-77-55-44-22------------22-------------------|
E----------------77-55-44---------------------|

Pre Verse

G---------------------------------------------|
D---------------------------------------------| x2
A---------------------------------------------|
E-777-555-3-777-555-3-777-555-3-55/3-55/3-----|

Verse

G---------------------------------------------|
D---------------------------------------------| x4
A-77-55-44-22------------22-------------------|
E----------------77-55-44---------------------|

Pre Chorus

G---------------------------------------------|
D---------------------------------------------| x4
A-7~----5~-----3~-----------------------------|
E-------------------7~---5~----3~-------------|

G---------------------------------------------|
D---------------------------------------------| x 2
A---------------------------------------------|
E-3~---55/3----55/3---------------------------|

Chorus

G---------------------------------------------|
D---------------------------------------------| x2
A---------------------------------------------|
E-777-555-3-777-555-3-777-555-3--55/3-55/3--3~-0~-0~--|

then:
Verse x4
Pre chorus x2
Chorus x 2
*Rest*
Verse, end on E-0-0~

Thats how I play it, but if you see any errors please send me your
corrections at gbeney@hotmail.com.
-------------------------------------------------------------------------------
We Want Fun - Andrew W K
-------------------------------------------------------------------------------

Tabbed by: Jacob Green
Email: revelation45@hotmail.com

Tuning:Standard
| ~ vibrato|

intro 2x 4x
e|-------------------------|-------------------------|
B|-------------------------|-------------------------|
G|-99-88-66-44-22----------|-99-88-66-44-------------|
D|----------------66-44-99-|-99-88-66-44-77-66-44-99-|
A|-------------------------|-77-66-44-22-77-66-44-99-|
E|-------------------------|-------------55-44-22-77-|

intro cont.2x 1x
e|------------|--|--------------------------------||------------|
B|------------|--|--------------------------------||-99-88-66-44|
G|-9999-------|2x|--------------------------------||------------|
D|-9999-77767-|--|11-11-11-9-77767-999-999-999-999||------------|
A|-7777-77767-|--|11-11-11-9-77767-999-999-999-999||------------|
E|------55545-|--|-9-9--9--7-55545-777-777-777-777||------------|

verse
e|------------------------|--|------------|--|--------------------------------|
B|------------------------|--|------------|--|--------------------------------|
G|-99-88-66-44------------|4x|------------|2x|------9-8-6-4-------------------|
D|-99-88-66-44-77-66-44-99|--|-7--9--2--6-|--|7--9--9-8-6-4--7-999-999-999-999|
A|-77-66-44-22-77-66-44-99|--|-7--9--2--6-|--|7--9--7-6-4-2--7-999-999-999-999|
E|-------------55-44-22-77|--|-5~-7~-0~-4~|--|5~-7~----------5-777-777-777-777|

chorus
e|------------|--|--------------------------------|
B|------------|--|--------------------------------|
G|-9999-------|2x|--------------------------------|
D|-9999-77767-|--|11-11-11-9-77767-999-999-999-999|
A|-7777-77767-|--|11-11-11-9-77767-999-999-999-999|
E|------55545-|--|-9-9--9--7-55545-777-777-777-777|

e|------------|--|--------------|
B|------------|--|--------------|
G|-9999-------|2x|-99-88-66-44--|
D|-9999-77767-|--|-99-88-66-44-7|
A|-7777-77767-|--|-77-66-44-22-7|
E|------55545-|--|-------------5|

For between the first chorus and second verse just play the first part of the
verse.
For the outro play the first of the verse then the last of the chorus,
end on A7. Enjoy.


===============================================================================
Tabbed by: Dylan Devoe
Email: dylandevoe@hotmail.com

Tuning: Standard (EADGBe)

Intro: x2
e|-12-12-11-11-9-9-7-7-5-5-4-4-2-2-7-7-|
B|-------------------------------------|
G|-------------------------------------|
D|-------------------------------------|
A|-------------------------------------|
E|-------------------------------------|

e|---------------------------------------|
B|---------------------------------------|
G|---------------------------------------|
D|-14-14-13-13-11-11-9-9-7-7-6-6-4-4-9-9-| x2
A|-14-14-13-13-11-11-9-9-7-7-6-6-4-4-9-9-|
E|-12-12-11-11-9--9--7-7-5-5-4-4-2-2-7-7-|

e|--------------------------------------------------------------|
B|--------------------------------------------------------------|
G|--------------------------------------------------------------|
D|-2-2-2-2-7-6-7-2-2-2-2-7-6-7-11-11-11-9-7-6-7-xx9-xx9-xx9-xx9-| x2
A|-2-2-2-2-7-6-7-2-2-2-2-7-6-7-11-11-11-9-7-6-7-xx9-xx9-xx9-xx9-|
E|-0-0-0-0-5-4-5-0-0-0-0-5-4-5-9--9--9--7-5-4-5-xx7-xx7-xx7-xx7-|

Fill
e|-12-12-11-11-9-9-7-7-|
B|---------------------|
G|---------------------|
D|---------------------|
A|---------------------|
E|---------------------|

Verse:
e|---------------------------------------|
B|---------------------------------------|
G|---------------------------------------|
D|-14-14-13-13-11-11-9-9-7-7-6-6-4-4-9-9-| x4
A|-14-14-13-13-11-11-9-9-7-7-6-6-4-4-9-9-|
E|-12-12-11-11-9--9--7-7-5-5-4-4-2-2-7-7-|

Pre-Chorus:
e|---------------------------------------|
B|---------------------------------------|
G|---------------------------------------|
A|-7---9---2---6---7---9---2---6---7---9-|
D|-7---9---2---6---7---9---2---6---7---9-|
E|-5---7---0---4---5---7---0---4---5---7-|

e|---------------------------------------------|
B|---------------------------------------------|
G|---------------------------------------------|
D|-14-14-13-13-11-11-9-9-7-~~~-xx9-xx9-xx9-xx9-|
A|-14-14-13-13-11-11-9-9-7-~~~-xx9-xx9-xx9-xx9-|
E|-12-12-11-11-9--9--7-7-5-~~~-xx7-xx7-xx7-xx7-|

Chorus:
e|--------------------------------------------------------------|
B|--------------------------------------------------------------|
G|--------------------------------------------------------------|
D|-2-2-2-2-7-6-7-2-2-2-2-7-6-7-11-11-11-9-7-6-7-xx9-xx9-xx9-xx9-|
A|-2-2-2-2-7-6-7-2-2-2-2-7-6-7-11-11-11-9-7-6-7-xx9-xx9-xx9-xx9-|
E|-0-0-0-0-5-4-5-0-0-0-0-5-4-5-9--9--9--7-5-4-5-xx7-xx7-xx7-xx7-|

e|-----------------------------------------------------|
B|-----------------------------------------------------|
G|-----------------------------------------------------|
D|-2-2-2-2-7-6-7-2-2-2-2-7-6-7-14-14-13-13-11-11-9-9-7-|
A|-2-2-2-2-7-6-7-2-2-2-2-7-6-7-14-14-13-13-11-11-9-9-7-|
E|-0-0-0-0-5-4-5-0-0-0-0-5-4-5-12-12-11-11-9--9--7-7-5-|

Fill:
e|---------------------------------------|
B|---------------------------------------|
G|---------------------------------------|
D|-14-14-13-13-11-11-9-9-7-7-6-6-4-4-9-9-| x2
A|-14-14-13-13-11-11-9-9-7-7-6-6-4-4-9-9-|
E|-12-12-11-11-9--9--7-7-5-5-4-4-2-2-7-7-|

Verse:
e|---------------------------------------|
B|---------------------------------------|
G|---------------------------------------|
D|-14-14-13-13-11-11-9-9-7-7-6-6-4-4-9-9-| x2
A|-14-14-13-13-11-11-9-9-7-7-6-6-4-4-9-9-|
E|-12-12-11-11-9--9--7-7-5-5-4-4-2-2-7-7-|

Pre-Chorus:
e|---------------------------------------|
B|---------------------------------------|
G|---------------------------------------|
A|-7---9---2---6---7---9---2---6---7---9-|
D|-7---9---2---6---7---9---2---6---7---9-|
E|-5---7---0---4---5---7---0---4---5---7-|

e|---------------------------------------------|
B|---------------------------------------------|
G|---------------------------------------------|
D|-14-14-13-13-11-11-9-9-7-~~~-xx9-xx9-xx9-xx9-|
A|-14-14-13-13-11-11-9-9-7-~~~-xx9-xx9-xx9-xx9-|
E|-12-12-11-11-9--9--7-7-5-~~~-xx7-xx7-xx7-xx7-|

Chorus:
e|--------------------------------------------------------------|
B|--------------------------------------------------------------|
G|--------------------------------------------------------------|
D|-2-2-2-2-7-6-7-2-2-2-2-7-6-7-11-11-11-9-7-6-7-xx9-xx9-xx9-xx9-|
A|-2-2-2-2-7-6-7-2-2-2-2-7-6-7-11-11-11-9-7-6-7-xx9-xx9-xx9-xx9-|
E|-0-0-0-0-5-4-5-0-0-0-0-5-4-5-9--9--9--7-5-4-5-xx7-xx7-xx7-xx7-|

e|---------------------------------------------------------|
B|---------------------------------------------------------|
G|---------------------------------------------------------|
D|-2-2-2-2-7-6-7-2-2-2-2-7-6-7-14-14-13-13-11-11-9-9-7-2-2-|
A|-2-2-2-2-7-6-7-2-2-2-2-7-6-7-14-14-13-13-11-11-9-9-7-2-2-|
E|-0-0-0-0-5-4-5-0-0-0-0-5-4-5-12-12-11-11-9--9--7-7-5-0-0-|

~Bridge~

Fill:
e|---------------------------------------|
B|---------------------------------------|
G|---------------------------------------|
D|-14-14-13-13-11-11-9-9-7-7-6-6-4-4-9-9-| x3
A|-14-14-13-13-11-11-9-9-7-7-6-6-4-4-9-9-|
E|-12-12-11-11-9--9--7-7-5-5-4-4-2-2-7-7-|

e|-----------------------------------|
B|-----------------------------------|
G|-----------------------------------|
D|-14-14-13-13-11-11-9-9-7-7-~~~-2-2-|
A|-14-14-13-13-11-11-9-9-7-7-~~~-2-2-|
E|-12-12-11-11-9--9--7-7-5-5-~~~-0-0-|

THE END...Bahahahaha! Now Go Play It And Get The Hell Off The Computer!