Angelwitch — Angelwitch

A  N  G  E  L  W  I  T  C  H
A N G E L W I T C H

Intro
--------------------------|
--------------------------|
--------------------------|
-5r----5-3r----1111-3-5r--|

Verse
-------------------------------|
-------------------------------|
-------------------------------|
-5--5-5--5-3--3-3--1--1-1-3--5-|

Chorus
-------------------------------|
-------------------------------|
--------------------8-8-7------|
-5--5-5-7-8--8-8-8---------8-5-|

Bridge
----------------------------------------------------------|
----------------------------------------------------------|
-3-----7--777-5----8--10---7----8--10--12--10-----8---7r--|
----------------7-----------------------------------------|

Chorus Variation
------------------------------|
------------------------------|
----------------8---7---------|
-5------7-8------------8--5---|

Song Structure
Intro x2
Verse x6
Chorus x2
Verse x5
Chorus x2
Verse x2
Bridge x1
Intro x2
Chorus x5
Chorus Variation x4
Chorus x8 (fade out)

Metal_up_your_ass@2die4.com