Angelwitch — Free Man

FREE MAN
ANGELWITCH

------------------------------------------------------------------------------------|
------------------------------------------------------------------------------------|
-8-7-5--5-5--5-5--5-3-3-3-5--5-5--5-5--5-3--3-1--1-1--1-1--1-0--0-------------------|
-------------------------------------------------------------------3--3-3--3-5--5-5-|

Chorus
----------------------------------------------------|
----------------------------------------------------|
-8-7-5--55555-55555-5555-3-3-3-1-11111-11111-33333--|
----------------------------------------------------|

Outro
---------------------------------------------|
---------------------------------------------|
-8-7-5--5-5--3-1--1-1--0--------------4--5---|
-------------------------3--3-3--3-5---------|

I did?nt care to tab out the variations...

/metal_up_your_ass@2die4.com