Angelwitch — Loser

LOSER  by  ANGELWITCH

Intro/Chorus
---------------------------------------------|
---------------------------------------------|
-7-777---------5--3-5-7--777-------5--3-5-3--|
--------3-333----------------3-333-----------|

Verse
-----------------------------------------------|
-----------------------------------------------|
-7-77-77-77-77-77-77-77-77-77-77-77-7-------2--|
---------------------------------------3--3----|

Pre Chorus
----------------------------------------|-------------|---------|
----------------------------------------|-------------|---------|
-3-33-33-33-3-5-55-55-55-5-2-22-22-22-2-|-3-33-33-33--|-0-2-3-2-|
----------------------------------------|-------------|---------|

I might be wrong about the last note on the chorus...

/metal_up_your_ass@2di4.com