Angra — Nova Era

Artist: Angra
Song: Nova Era
Tab By; Samuel Deluca {Bauru - Brazil}
(samuel@boleiro.zzn.com for coments)

Tab explanation:

D3 E3

D| |--7---| D| |--9---|
A|*|--4---| A|*|--6---|
E| |------| E|*|------|

---------------------

Intro I
D A#A G A A# A D G A A# A
| |---------------------------------|------------------------------| |
|*|---------------------------------|------------------------------|*|
| |-7-------------------------7-----|------------------------------| |
| |-7-------8-7-5-7-8---7-----7-----|---5-7-8---7------------------| |
|*|-5-------8-7-5-7-8---7-----5-----|---5-7-8---7------------------|*|
| |---------6-5-3-5-6---5-----------|---3-5-6---5------------------| |

D A#A G A A# A D A#A G A A# A C# D
| |---------------------------------|------------------------------| |
|*|---------------------------------|------------------------------|*|
| |-7-------------------------7-----|-----------------------6--7---| |
| |-7-------8-7-5-7-8---7-----7-----|---------8-7-5-7-8--7--6--7---| |
|*|-5-------8-7-5-7-8---7-----5-----|---------8-7-5-7-8--7--4--5---|*|
| |---------6-5-3-5-6---5-----------|---3--5--6-5-3-5-6--5---------| |

--------------------

Intro II
D C# D C
| |---------------------------------|------------------------------| |
|*|---------------------------------|---14--------14----14-15-17---|*|
| |--14--------14-----14-15---------|------15--------17------------| |
| |-----15---------17-------17------|---------17-------------------| |
|*|--------17-----------------------|------------------------------|*|
| |---------------------------------|------------------------------| |


D C# G D
| |---------------------------| | |--------------------------------| |
|*|---------------------------| | |--------------------------------|*|
| |--14--------14-----14-15---| | |15--15-14-12-15-14------------15| | 2X
| |-----15---------17-------17| | |------------------------12-14---| |This
|*|--------17-----------------| | |----------------------14--------|*|Part
| |---------------------------| | |--------------------------------| |

A# A
| |--------------------------------|
|*|--------------------------------|
| |--------12-13b-p11--14b-p12-14--|
| |--13-15-------------------------|
|*|--------------------------------|
| |--------------------------------|

D D3 D C D
Somehow I Know, That things are gonna Change

D C
New Bondaries...


Verse I

Like Never were Before...
| |--------------------------------|--------------------------------|
|*|--------------------------------|--------------------------------|
| |--------------------------------|--------------------------------|
| |--8--5-7-8--5----8--5-7-8--5----|--------------------------------|
|*|--------------------------------|--8--5-7-8--5----8--5-7-8--5----|
| |--------------------------------|--------------------------------|

A# A F E A# C D
...Sunrise Again; New Day Shines, Folen Angels will arise

A# F D
Nova Era bring the angels back to life...

A# F D# D
...Angels Will arise, back...
--------------------
Intro II (again)
-------------------
D D3 D
...Fresh winds of hope...


Solo Rithym
D#
...Back to life

Rit I -> D# D# D# D# D# D#

Rit II -> C A# C# C D D#

Rit III -> G F D# C A# F F# G (2X)

Rit IV -> A G# F A# A (2X)
D C# A# D# D (2x)


| |------------------------------------|------------------------|
|*|------------------------------------|------------------------|
| |------------------------------------|------------------------|
| |----------------------------------5-|---------------9/7-5/7--|
|*|------10--7--9--5--7--------5-7-8---|-----10--7--9--7/5-3/5--|
| |-0-0------------------5-7-8---------|-0-0--------------------|


| |-----------------------------------|--------------------------|
|*|-----------------------------------|--------------------------|
| |-----------------------------------|--------------------------|
| |----------------------5------------|---------------9/7-5/7----|
|*|------10--7--9--5--7----8-7-5------|-----10--7--9--7/5-3/5----|
| |-0-0--------------------------8-7-5|--0-0---------------------|


Rit V -> G A F A# D# G#
--------------------------
Find a meaning... (verse I)
-------------------------
G F# C D E
... All over now sores in pain and awfull lies

C G F E E E3 E D
Angels Lead you through Paradise.

C D E
Nova era is the passage to your mind

C C D G E
And fore.... Nova era bring the angel back to life, To life.