Animals — House Of The Rising Sun

На этой странице Вы можете ознакомиться с 5 версиями подбора аккордов для гитары к песне "House Of The Rising Sun" группы (исполнителя) "Animals".

House Of The Rising Sun - The Animals

intro verse
G|------------------------|-------------------------------------------------------------------|
D|---------3--------------|---------3------------------------3-----------------3--------------|
A|---3--5-----------------|---3--5--------3--57--7-----3--5--------------3--5-----------------|
E|5-----------5--0--5--0--|5-----------5------------5-----------5--0--5-----------5--0--5--0--|

outro
G|--------------------------------------|
D|----------------------75------345675--|
A|5-----5-----5-----5--7--76537---------|
E|---5-----5-----5----------------------|

tabbed by Achilles (blue_sincere@hotmail.com)
the song is basically arpeggio of some chords, and yes, it is my first tab.
my guitar instructor taught me this, if you play it right it sounds near perfect.
this first part is just the intro, but it helps you get the arpeggios down for
the rest of the verses, though if you already know the chords it's incredibly
easy. e-mail me at mtf4368@hotmail.com with suggestions, comments, whatever.

INTRO
Am C
E---------------0------------------------------------0-----------
B-----------1--------1-------------------------1--------1--------
G--------2----------------2--------------0-----------------0-----
D-----2-------------------------------2--------------------------
A--0------------------------------3------------------------------
E----------------------------------------------------------------

D F (bar top 2 strings)
E------------2---2--------------------------------1---1----------
B---------3----------3-----------------------1------------1------
G-----2------------------2---------------2--------------------2--
D--0---------------------------------3---------------------------
A----------------------------------------------------------------
E----------------------------------------------------------------

Am E
E---------------0------------------------------------------------
B-----------1--------1---------------------------------0---------
G--------2----------------2----------------------1--------1------
D-----2--------------------------------------2----------------2--
A--0------------------------------------2------------------------
E------------------------------------0---------------------------

Am E
E---------------0------------------------------------------------
B-----------1--------1---------------------------------0---------
G--------2----------------2----------------------1--------1------
D-----2--------------------------------------2----------------2--
A--0------------------------------------2------------------------
E------------------------------------0---------------------------


The rest of the verse is basically the above in a different order

Am C D F Am C E E

Am C D F Am E Am C

D F Am E Am E
-------------------------------------------------------------------------------
House Of The Rising Sun -- animals
-------------------------------------------------------------------------------
Email: kcflaw@hotmail.com


This song is great for practice on fingerpicking technique


Am C D F
e|-------------0-------|---------0-------|---------2------|--------1-------|
B|-----------1---1-----|-------1---1-----|-------3---3----|------1---1-----|
G|---------2-------2---|-----0-------0---|-----2-------2--|----2-------2---|
D|---------------------|-----------------|---0------------|--3-------------|
A|------0--------------|--3--------------|----------------|----------------|
E|---------------------|-----------------|----------------|----------------|
there is a house in new or - leans they


Am C E E
e|---------0-------|---------0-------|----------0-------|--------0---------|
B|-------1---1-----|-------1---1-----|--------0---0-----|------0---0-------|
G|-----2-------2---|-----0-------0---|------1-------1---|----1-------1-----|
D|-----------------|-----------------|------------------|------------------|
A|--0--------------|--3--------------|------------------|--2---------------|
E|-----------------|-----------------|---0--------------|------------------|
call the ri - sin' sun and it's



Am C D F
e|-------------0-------|---------0-------|---------2------|--------1-------|
B|-----------1---1-----|-------1---1-----|-------3---3----|------1---1-----|
G|---------2-------2---|-----0-------0---|-----2-------2--|----2-------2---|
D|---------------------|-----------------|---0------------|--3-------------|
A|------0--------------|--3--------------|----------------|----------------|
E|---------------------|-----------------|----------------|----------------|
been the ruin of many poor boys and


Am E Am E
e|----------0-------|----------0-------|----------0-------|----------0-----|
B|--------1---1-----|--------0---0-----|--------1---1-----|--------0---0---|
G|------2-------2---|------1-------1---|------2-------2---|------1-------1-|
D|------------------|------------------|------------------|----------------|
A|---0--------------|------------------|---0--------------|---2------------|
E|------------------|---0--------------|------------------|----------------|
me I know I'm one



any comments? questions? insults? corrections?

ok, hope i didnt miss anything!
The House of the Rising Sun
As performed by The Animals
Submitted by Halfdan Baadsvik
Tabbed by Halfdan Baadsvik and Lars Havro

I've seen many submitions of this song with
the correct chords. But the arpeggio is not
so good on all of them. Some are almost OK,
some are bad and some are just downright
bizarre.
But THIS verson is very close to the autentic
sound. Actually, I don't think it's possible
to get any closer.

Am C D
e|-------0-----------0-----------2-----|
B|-----1*--1-------1*--1-------3*--3---|
G|----2*-----2----0*-----0----2*-----2-|
D|---2*----------2*--------0-0*--------|
A|-0-----------3-----------------------|
E|-------------------------------------|

E F
e|-------0-----------1-----|
B|-----0*--0-------1*--1---|
G|----1*-----1----2*-----2-|
D|---2*----------3*--------|
A|-------------------------|
E|-0-----------1-----------|

* - Let your plectrum slide down the strings on these
notes. If you didn't get that, mail me and I'll try
to explain it another way.

Questions, comments and suggestions to halfdan@eskobar.nu
Am         C        D     F
There is a house in New Orleans,
Am C E E
They call the Rising Sun
Am C D F
And It's been the ruin of many a poor boy
Am E Am C D F Am E Am E
And God, I know, I'm one

Am C D F
My mother was a tailor
She sewed my new blue jeans
My father was a gambling man
Down in New Orleans

And the only things a gambler needs
Is a suitcase and a trunk
And the only time he's satisfied
Is when he's all a-drunk

I've got one foot on the platform
The other foot on the train
I'm going back to New Orleans
To wear the ball and chain

So mothers, tell your children
Not to do what I have done
Spend your life in sin and misery
In the house of the Rising Sun

Repeat First Verse