Animals — Its My Life

На этой странице Вы можете ознакомиться с 2 версиями подбора аккордов для гитары к песне "Its My Life" группы (исполнителя) "Animals".

This is the intro. (it's all I know)
Listen to the song to better understand

----------------------------
----------------------------
----------------------------
----------------------------
--0-2--0-2--0-2-0-----------
------------------2-0-2-----
2x

----------------------------
----------------------------
----------------------------
----------------------------
------0-2-3-3-0-3-2-0-------
--2-2-----------------2-0-2-

I learned this from my dad so I don't know how accurate it is but it sounds right to me. Enjoy!
Submit By: Josh Gibson
This is the intro:

-------------------------
-------------------------
-------------------------
-0-2--0-2--0-2-0---------
----------------2-0-2----
-------------------------

Play twice

Verse 1:

--------------------------
--------------------------
----0--1--2--2--1--0------
-2--------------------2---
--------------------------
--------------------------

Repeat

Listen to song for timing

That's all I know, I've only been playing for
a month and this is my first tab

Bye

Nicholas Shubitz