Animals — The house of rising sun

Am          C           D         F  
e|------0----------0-----------2---------1--
b|-----1----------1-1---------3-3-------1-1-
g|----2----------0-----------2---------2----
d----------2-0---------0--------
a|---0-----0-2-3-----------0---------3------
e|-0----------------------------------------

Am C E
e|------0----------0---------0-------0--
b|-----1----------1---------0-0-----0-0-
g|----2----------0---------1---1---1----
d---------------------------
a|--0------0-0-------3-0---------2------
e|-0-----------0---------0--------------

Am C D F
e|------0----------0-----------2---------1--
b|-----1----------1-1---------3-3-------1-1-
g|----2----------0-----------2---------2----
d----------2-0---------0--------
a|---0-----0-2-3-----------0---------3------
e|-0----------------------------------------

Am E Am
e|------0--------0-------0-----
b|-----1--------0-------1-1----
g|----2--------1-------2---2---
d------------------
a|--0------00--------0-------0-
e|-0---------0-----00----------



Am C D F
There is a house in New Orleans,
Am C E
They call it Rising Sun.
Am C D F
And itґs been the ruin of many a poor boy,
Am E Am
And God, I know Iґm one.

My mother was a tailor
She sewed my new blue jeans
My father was a gambling man
Down in New Orleans.

And the only thing a gambler needs
Is a suitcase and a trunk.
And the only time he is satisfied
Is when heґs down and drunk.

So mother tell your children
Not to do what I have done
Spend your lives in sin and misery
In the House of a Rising sun.

Well Iґve got one foot on the platform
The other foot on the train.
Iґm going back to New Orleans
To wear that ball and chain.

There is a house in New Orleans,
They call it Rising Sun.

Табы здесь будут перепутаны и перекручены из-за того, что длина цифр не совпадает сдлиной палочек. Скоопируйте туда, где их длина будет совпадать, тогда все получится.