Annihilator — 21

Annihilator: 21

Riff 1 Riff 2 Riff 3
|--------| |-------------------------------| |---------|
|--------| |-------------------------------| |---------|
|--------| |-------------------------------| |-8--5----|
|--------| |-------------------------------| |-8--5----|
|-5-3-5--| |-53/5---8-65---5---5---3-5---| |-6--3--3-|
|-3-1-3--| |-31/3-x-6-43-x-3-x-3-x-1-3---| |-------1-|
Pm--Є

Riff 4
|-------------------------------|-------------------------------|
|-------------------------------|-------------------------------|
|-------------------------------|-------------------------------|
|-35/3---8-65---5---5---3-5---|-53/5---8-65---5---5---5-----|
|-13/1-x-6-43-x-3-x-3-x-1-3---|-31/3-x-6-43-x-3-x-3-x-3-----|
|-------------------------------|---------------------------6-4-|
PmЄ
Riff 5 x2
|----------------------------|---------------------------------------|
|----------------------------|---------------------------------------|
|----------------------------|---------------------------------------|
|-----5--5-3----5--5-3-------|-----5--5-3---5--5-3-------5-3---3---3-|
|-----3--3-1----3--3-1-------|-----3--3-1---3--3-1-------3-1-5-1-5-1-|
|-3-3---------3--------0-1-3-|-1-1--------1--------0-1-3-----3---3---|
PmЄ Pm PmЄ Pm

Song Structure

Riff 1 x 2
Riff 2 x 8
Riff 2 x 4 Welcome to the Hothouse, ...
Riff 4 But when the dealer ...
Riff 2 x 2 I got no time ...
Riff 3 She's got me ...
Riff 2
Riff 3 She can't have ...
Riff 1 x 2
Riff 2 x 4 She asked me why ...
Riff 4 a 4 for me, ...
Riff 2 x 2 I said hit me ...
Riff 3 She's got me ...
Riff 2
Riff 3 She can't have ...
Riff 2
Riff 3 I've got to be ...
Riff 2
Riff 3 She cant have 21
Riff 5