Anouk — Michel

This song was tabt by
Jur v/d Tuuk

Intro/Chorus


e|----0------0------0------0--|
B|-3-3-3--3-3-3--3-3-3--3-3-3-|
G|--2---2--2---2--2---2--2---2|
D|----------------------------|
A|----------------------------|
E|----------------------------|


e|----0-------0------0---0--0------0------0------0---0--0--
B|---3-3-----3-3----3-3---3--3----3-3----3-3----3-3---3--3-
G|--2---2---2---2--2---2---2--2--2---2--2---2--2---2---2--2
D|-0----------------------------0--------------------------
A|---------0---------------------------0-------------------
E|----------------3---------------------------3------------

Verse

e|----0-------0------0---0--0--|
B|---3-3-----3-3----3-3---3--3-|
G|--2---2---2---2--2---2---2--2|
D|-0---------------------------|
A|---------0-------------------|
E|----------------3------------|
Repeat 4x

Refrein

D Dsus2 G
We walked the street to the beat hand in hand you and me
D Dsus2 G
Smiling faces so in love hoping that they all could see
D Dsus2 G
That we belong together, you and me against the world
D Dsus2 Chorus2
But we found out the hard way, guess it wasn't ment to be

Now it's you and her I see

Chorus2

e|------0---0---0--
B|-----3-3---3---3-
G|----2---2---2---2
D|-----------------
A|-----------------
E|---3-------------

The song is like this

Intro
Verse
Refrein
Verse
Refrein
Verse
Verse