Anouk — Sacrifice

#----------------------------------PLEASE NOTE--------------------------------#
#This file is the author's own work and represents their interpretation of the#
#song. You may only use this file for private study, scholarship, or research.#
#-----------------------------------------------------------------------------#

Date: Wed, 29 Apr 1998 18:46:16 +0200
From: Richard de Jong
Subject: a/anouk/sacrifice.tab

==============================================================================
Song : Sacrifice
Artist : Anouk
Album : Together Alone
Authors : O.Boumans, S. van Amerongen
Publisher : Bouncin'Balls / TBM INT.C.V.
------------------------------------------------------------------------------
Tabbed by : Richard de Jong / The Netherlands / Richard.Jong@TIP.NL
Michael Sorensen / Denmark / 5b300800@UV.HERNHS.DK
------------------------------------------------------------------------------
Last change : April 18th, 1998
==============================================================================
Tuning Tune guitar in Eb
==============================================================================
Legend h = hammer-on p = pull-off
b = bend r = bend release
/ = slide up/down = natural harmonic
[5] = artifical harmonic ~ = vibrato
tr = trill ґ = Break
^ = Appegio
==============================================================================

{Intro}
{Clean Guitar}
E B D A
1 2 3 4 1 2 3 4 1 2 3 4 1 2 3 4
E[------0---------|------0---------|0---------------|0-----0---------]
B[------0---------|------0---------|0---------------|0---------------]
G[---1--1---------|---8--8---------|11--------------|6--6------------]
D[----2-2---------|----9-9---------|12------12------|7---7-----------]
A[--2---2---------|--9---9---------|12------12------|7-7-------------]
E[0-----0---------|7-----7---------|10---10---------|5---------------]

E[0---------------|0---------------|0---------------|0---------------]
B[0---------------|0---------------|0---------------|0---------------]
G[13--------------|8---------------|11--------------|6---------------]
D[14--------------|9---------------|12--------------|7---------------]
A[14--------------|9---------------|12--------------|7----------0----]
E[0---------------|7---------------|10--------------|5---------0--0--]
Who is you happy And who you laugh
the one is the one
that makes that always
makes

E[------0---------|0-----------0---|----------------|------------0---]
B[------0---------|0-----------0---|----------------|------------0---]
G[--13--13--------|8-----------8---|----------------|6-----------6-/-]
D[---14-14--------|9-----------9---|12--------------|7-----------7-/-]
A[------14--------|9-----------99/-|12--------------|7----------77-/-]
E[------0---------|7-----------77/-|10--------------|5----------55---]
Who is the smiling And dragged rough
reason you're you through
these time so

E[----------------|------------0---|----------------|0---------------]
B[----------------|------------0---|----------------|0---------------]
G[----------------|8-----------8---|----------------|6-----------6-/-]
D[2---------------|9-----------9---|12--------------|7-----------7-/-]
A[2---------------|9----------9-9/-|12--------------|7----------77-/-]
E[0---------------|7----------7-7/-|10--------------|5----------55---]
I was the happy And I was pain
that made you the one that
eased the

E[------0---------|------------0---|----------------|0-----0-----0---]
B[----------------|------------0---|----------------|0-----0-----0---]
G[---1------------|8-----------8---|----------------|6-66666-66666-/-]
D[2---2-----------|9-----------9---|12--------------|7-77777-77777-/-]
A[2---------------|9----------9-9/-|12--------------|7-77777-77777-/-]
E[0---------------|7----------7-7/-|10--------------|5-66666-66666---]
But I'm the crying now My own the rain
reason that tears
you're scattered by

E[----------------|---0--0-----0---|--0---0-----0---|---0--0--0--0---]
B[----------------|---0--0---------|--0---0-----0---|----------------]
G[----------------|8-888-8----8-8--|--11--11----11--|--7-7--7--7-----]
D[2---------------|9-999-9---9---9-|1212--12----12--|-7---7--7--7----]
A[2---------------|9-999-9--9------|1212--12----12--|----------------]
E[0---0-----------|7-777-7---------|1010--10----10--|5---------------]
You can me You can me
sacrifice sacrifice



E[------0-----0---|---0-0---0--0---|----00----------|------0---------]
B[------0-----0---|---0-0---0--0---|----00----------|------------0---]
G[--13--13----13--|8-88888--8-88---|---1111---------|---6--------6-/-]
D[14-14-14----14--|9-99999--9-99---|12-121212-------|----7-------7-/-]
A[14--1414----14--|9-99999--9-99---|12-121212-------|--7---------7-/-]
E[0-----0-----0---|7-77777--7-77---|10-101010-------|5----------55---]
You me free You who you wanna be
can set can be

Note : From now on I'll only display the chord that is played in the
riff. Other things like breaks and fingerpicking I still will
show. As far as the chords you should play along with the song
a couple of times to get the feel

E[0---x-----------|0---x-----------|0---x-----------|0---x-----------]
B[0---x-----------|0---x-----------|0---x-----------|0---x-----------]
G[1---x-----------|8---x-----------|11--x-----------|6---x-----------]
D[2---x-----------|9---x-----------|12--x-----------|7---x-----------]
A[2---x-----------|9---x-----------|12--x-----------|7---x-----------]
E[0---x-----------|7---x-----------|10--x-----------|5---x-----------]

E[0---x-----------|0---x-----------|0---x-----------|0---x-----------]
B[0---x-----------|0---x-----------|0---x-----------|0---x-----------]
G[1---x-----------|8---x-----------|11--x-----------|6---x-----------]
D[2---x-----------|9---x-----------|12--x-----------|7---x-----------]
A[2---x-----------|9---x-----------|12--x-----------|7---x-----------]
E[0---x-----------|7---x-----------|10--x-----------|5---x-----------]
Deeper than trip baby You shared more
deep you your wildest
took me on a dreams and

E[0---x-----------|0---x------0----|0---x-----------|0---------------]
B[0---x-----------|0---x-----------|0---x-----------|0---------------]
G[13--x-----------|8---x-----8-8---|11--x-----------|6---------------]
D[14--x-----------|9---x----9---9--|12--x-----------|7---------------]
A[14--x-----------|9---x---9-------|12--x-----------|7---------------]
E[0---x-----------|7---x-----------|10--x-----------|5---------------]
You dare me to you I never before
to express felt that
my feelings need

E[0---------------|0---------------|0---------------|0---------------]
B[0---------------|0---------------|0---------------|0---------------]
G[13--------------|8---------------|11--------------|6---------------]
D[14--------------|9----------91011|12--------------|7---------------]
A[14--------------|9----------91011|12--------------|7---------------]
E[0---------------|7----------78-9-|10--------------|5---------------]
But suddenly freedom You felt the free
you needed need to break

E[0---------------|0---------------|0---------------|0---------------]
B[0---------------|0---------------|0---------------|0---------------]
G[1---------------|8---------------|11--------------|6---------------]
D[2---------------|9---------------|12--------------|7---------------]
A[2---------------|9---------------|12--------------|7---------------]
E[0---------------|7---------------|10--------------|5---------------]
You started sorrow You didn't the key yeah so
drowning in wanna know
your I had

E[0---------------|0---------------|0---------------|0---------------]
B[0---------------|0---------------|0---------------|0---------------]
G[1---------------|8---------------|11--------------|6---------------]
D[2---------------|9---------------|12--------------|7---------------]
A[2---------------|9---------------|12--------------|7-------0-------]
E[0---------------|7---------------|10--------------|5--------79/1012]
You can me You can me
sacrifice sacrifice

E[0---------------|0---------------|0---------------|0---------------]
B[0---------------|0---------------|0---------------|0---------------]
G[13--------------|8---------------|11--------------|6---------------]
D[14--------------|9----------91011|12--------------|7---------------]
A[14--------------|9----------91011|12--------------|7---------------]
E[0---------------|7----------78-9-|10--------------|5---------------]
You can set me free yeah You can be You can be
who you wanna who you wanna

E[0---------------|0----------0----|0---------------|0---------------]
B[0---------------|0---------------|0---------------|0---------------]
G[1---------------|8---------8-8---|11--------------|6---------------]
D[2---------------|9--------9---9--|12--------------|7---------------]
A[2---------------|9-------9-------|12--------------|7--------0------]
E[0---------------|7---------------|10--------------|5---------9/1012]
be you you you you can sacrifice
you you

E[0---------------|0----------0----|0---------------|0---------------]
B[0---------------|0---------------|0---------------|0---------------]
G[13--------------|8---------8-8---|11--------------|6---------------]
D[14--------------|9--------9---9--|12--------------|7---------------]
A[14--------------|9-------9-------|12--------------|7---------------]
E[0---------------|7---------------|10--------------|5---------------]
me sacrifice me You can be You can be
who you wanna who you wanna

E[-------------------------------------------------------------------]
B[--------------------5-7/9-----9------------------------------------]
G[------------------4---------9--------------------------------------]
D[------------2-4/6---------9----------------------------------------]
A[----------2--------------------------------------------------------]
E[--------0----------------------------------------------------------]
be

Richard de Jong
Richard.Jong@TIP.NL