Anouk — The Dark

На этой странице Вы можете ознакомиться с 2 версиями подбора аккордов для гитары к песне "The Dark" группы (исполнителя) "Anouk".

Anouk - The Dark

INTRO:
Em Dsus2 Csus2 3x riff at 2nd time
e|---------------------------------|| e|-----------|
b|---------------------------------|| b|-----------|
G|*----------------7-7-7-7-5-5-5-5*|| G|-----7-----|
D|*2-2-2-2-2-2-2-2-7-7-7-7-5-5-5-5*|| D|-----7-----|
A|-2-2-2-2-2-2-2-2-5-5-5-5-3-3-3-3-|| A|-7h9---7h9-|
E|-0-0-0-0-0-0-0-0-----------------|| E|-----------|
Verse: Em
e|-------------------------||----
b|-------------------------||----
G|---------7-7-7-7--5--5---||----
D|-2-2-2-2-7-7-7-7--5--5---||-2--
A|-2-2-2-2-5-5-5-5--3--3---||-2--
E|-0-0-0-0-----------------||-0--

VERSE:
I'm walking in the park
And I'm talking to the dark

Guitar 2(wahwah): A|--5---55-|

But there ain't nobody listening, no

Guitar 1: Guitar 2:
e|-----12~~~~~| D|-6b7r5----|
b|-----15b17~~| A|------7--|

My heart has turned to stone
When I found myself alone

Guitar 2: A|--5--5555-|

Now all I do is whisper, to the dark

CHORUS:
2x Em Dsus2 Csus2


VERSE:
There's only so much you can take
You've gotta to give yourself a break
But I don't think you're listening,
no no no no

Guitar 1:
e|---------------------|
b|---------------------|
G|*------------7------*|
D|*-2-7------9-7-2-7--*|
A|--2-7------9-5-2-7---|
E|--0-5------7---0-5---|

Guitar 2: D|-7b8r7-|

If you're gonna take it all so hard
You gonna tear yourself apart
I can understand you miss him, in the dark,
Oh oh oh oooh

Guitar 1:
e|---------------------|
b|---------------------|
G|*------------7------*|
D|*-2-7------5-7-2-7--*|
A|--2-7------5-5-2-7---|
E|--0-5------3---0-5---|

REPEAT CHORUS

BRIDGE (palm muted):
Am7 Dadd4add9/A
e||--0-...--0-...---||
b||--1-...--3-...---||
G||*-0-...--0-...--*||
D||*-2-...--4-...--*||
A||--0-...--0-...---||
E||-----------------||

If love is no longer being served, you've got to leave the table
Mister Aznavour told me, merci beaucoup.
Though I miss him, got to let go.
Though I miss him, got to let go
Let it go

VERSE (rap):
Guitar 1: b|:----14b15-------:|
Guitar 2: all strings|:-xxx..:|

It's about that time to leave it all behind you
You don't want to but life is passing by you
The hard knocks, got you twisted like dreadlocks
Catalogue your dark and set some new marks
I understand your body's filled with hesitation
Trust me it's gonna be a whole new situation
Turn this page I guess you know what to do

Guitars: E5

Rise up like phoenix I'm bringing out the beauty in you, what?

CHORUS:
4x Em Dsus2 Csus2

Guitars: A|-h7-h7-5---
E|---------7-
OUTRO:
4x Em Dsus2 Csus2

Guitar solo: (4x Em Dsus2 Csus2 )
G|-9~~~~~~~~~~----| etc.
Anouk - The Dark

S = Slap
P = Pop

INTRO:
G|------------------------------------| |-----------------------|
D|*----------------------------------*| |-----------------------|
A|---------5h7-7-7-7-5-5-5-5-3-3-3-3--|x3 |---------5-5-5-5--3====|
E|*-0-0-0-0--------------------------*| |-0-0-0==---------------|
B|------------------------------------| |--------------------1==|

VERSE: (or 10/12)
G|-----------------------10h12----|-----------------------10h12----|
D|-------0h2-------x-----------11-|-------0h2-------x-----------11-|
A|--------------------------------|--------------------------------|
E|-0-x-x-----0/3-x----------------|-0-x-x-----0/3-x----------------|
B|--------------------------------|--------------------------------|
S S S P S S P P S S S S P S S P P S

G|-----------------------10h12----|--------------------------------|
D|-------0h2-------x-----------11-|-------0h2-------x------x-------|
A|--------------------------------|--------------------------------|
E|-0-x-x-----0/3-x----------------|-0-x-x-----0/3-x----5h6---6p5p3-|
B|--------------------------------|--------------------------------|
S S S P S S P P S S S S P S S P S P S
G|-----------------------10h12----|-----------(or 0)----------------|
D|-------0h2-------x-----------11-|-------0h2-----5----/10h11p10h11-|
A|--------------------------------|---------------------------------|
E|-0-x-x-----0/3-x----------------|-0-x-x-----0h3-------------------|
B|--------------------------------|---------------------------------|
S S S P S S P P S S S S P S S P P

G|-----------------------10h12----|--------------------------|
D|-------0h2-------x-----------11-|-------0h2----------------|
A|--------------------------------|--------------------------|
E|-0-x-x-----0/3-x----------------|-0-x-x-----0--------------|
B|--------------------------------|--------------------------|
S S S P S S P P S S S S P S

CHORUS:
G|-----------------------------------|--------------------------------|
D|-----------------------------------|--------------------------------|
A|---------5h7-7-7-7-5-5-5-5-3-3-3-3-|-----5h7-7-5-5-5-5--3=====------|
E|-0-0-0-0---------------------------|-0-0-----------------------/12-|
B|-----------------------------------|----------------------1===------|

VERSE:
G|-----------------------10h12----|-------------(or 0)---------|
D|-------0h2-------x--------------|-------0h2-------5----------|
A|-----------------------------0--|----------------------------|
E|-0-x-x-----0/3-x----------------|-0-x-x-----0/3-x--------10-|
B|--------------------------------|----------------------------|
S S S P S S P P S S S S P S S P S

G|-----------------------10h12----|----------6------7--7---------|
D|-------0h2-------x-----------11-|------x-----------------------|
A|--------------------------------|--------4---0h5--------5--5h7-|
E|-0-x-x-----0/3-x----------------|-0--x-------------------------|
B|--------------------------------|------------------------------|
S S S P S S P P S S S P S P S P P S S

G|-----------------------10h12----|--------------------/11h12p11h12-|
D|-------0h2-------x-----------11-|-------0h2-------x---------------|
A|--------------------------------|---------------------------------|
E|-0-x-x-----0/3-x----------------|-0-x-x-----0/3-x-----------------|
B|--------------------------------|---------------------------------|
S S S P S S P P S S S S P S S P P

G|-----------------------10h12----|--------------------------------|
D|-------0h2-------x-----------11-|-------0h2-2-2-2-2-2-2-2=======-|
A|--------------------------------|--------------------------------|
E|-0-x-x-----0/3-x----------------|-0-x-x--------------------------|
B|--------------------------------|--------------------------------|
S S S P S S P P S S S S P S S S S S S S

CHORUS:
G|----------------------------------|
D|----------------------------------|
A|-5h7-7-7-7-7-7-7-7-5-5-5-5-3-3-3-3|
E|----------------------------------|
B|----------------------------------|

G|-------------------------------------| |-------------------------|
D|*-----------------------------------*| |-------------------------|
A|----------5h7-7-7-7-5-5-5-5-3-3-3-3--|x2 |-----5h7-7-5-5-5-5--3===-|
E|*-0-0-0-0---------------------------*| |-0-0---------------------|
B|-------------------------------------| |----------------------1=-|

BRIDGE:
G|-/17-------------------------------------------------------------|
D|-/19--7-7-7-7(etc.)----7-7-7-7(etc.)---9h10~-9h10~-7-7-7-7(etc.)-|
A|-------------------------------------7---------------------------|
E|-------------------7-5-------------------------------------------|
B|-----------------------------------------------------------------|

VERSE:
G|-----------------------10h12----|---------------------------|
D|-------0h2-------x-----------11-|-------0h2-------x-------5-|
A|--------------------------------|---------------------------|
E|-0-x-x-----0/3-x----------------|-0-x-x-----0/3-x-----0h3---|
B|--------------------------------|---------------------------|
S S S P S S P P S S S S P S S P S P

G|-----------------------10h12----|---------------------------|
D|-------0h2-------x-----------11-|-------0h2-------x---------|
A|--------------------------------|---------------------------|
E|-0-x-x-----0/3-x----------------|-0-x-x-----0/3-x-----3/12-|
B|--------------------------------|---------------------------|
S S S P S S P P S S S S P S S P S

G|-12--------------------10h12----|---------------------7h9p7h9-|
D|-11----0h2-------x-----------11-|-------0h2-------x-----------|
A|--------------------------------|-----------------------------|
E|-----x-----0/3-x----------------|-0-x-x-----0/3-x-------------|
B|--------------------------------|-----------------------------|
P S P S S P P S S S S P S S P P

G|--------------------------------|---------------------------|
D|-------0h2-----x----------------|---------------------------|
A|--------------------------------|---------------------------|
E|-0-x-x-----0-x-----12----------|---------------------------|
B|--------------------------------|---------------------------|
S S S P S S P S

Note: During the outro, during the guitar solos, the bass improvises a lot. I
only put the main riff that is played here.

Chorus
G|-----------------------------------|
D|*---------------------------------*|
A|----------7-7-7-7-5-5-5-5-3-3-3-3--|x3
E|*-0-0-0-0-------------------------*|
B|-----------------------------------|

G|-----------------------------------|
D|-----------------------------------|
A|---------7-7-7-7-5-5-5-5-5-h7-7-5--|
E|-0-0-0-0-------------------------7-|
B|-----------------------------------|

Outro (solo):
repeat Chorus2x
G|-------------------------|
D|-------------------------|
A|-----5h7-7-5-5-5-5--3====|
E|-0-0---------------------|
B|----------------------1==|