Anouk — Tom Waits

Artist    : Anouk
Song : Tom Waits
Album : Urban Solitude
Tabbed By : Jo Lefebure (whipy@hotmail.com)

Standard Tuning :

Intro : (2x)

Bsus C#m
e|---------------------|----------4--4--------|
b|------------------0--|----------4--4h5------|
g|----------1----------|----------6--6--------|
d|-------4------4------|----------6--6--------|
a|----2----------------|-----4----------------|
e| 0-------------------|----------------------|

Verse : (2x)

Bsus C#m
e|---------------------|----------4--4--------------|
b|------------------0--|----------4--4h5~~~- 5p4----|
g|----------1----------|----------6--6-----------6--|
d|-------4------4------|----------6--6--------------|
a|----2----------------|-----4----------------------|
e| 0-------------------|----------------------------|
I was dreaming last night...
In the downtown train...

Bsus C#m
e|---------------------|----------4--4--------|
b|------------------0--|----------4--4h5------|
g|----------1----------|----------6--6--------|
d|-------4------4------|----------6--6--------|
a|----2----------------|-----4----------------|
e| 0-------------------|----------------------|
Figment of my brain...
And we had nowhere to

Verse End :

A Bsus
e|-----------0----------|---------------------|
b|--------------2-----2-|--------------0~~~---|
g|-------2---------2----|-----------4---------|
d|----2-----------------|--------4------------|
a| 0--------------------|-----2---------------|
e| ---------------------|---------------------|
go...

Chorus :

A Bsus
e|-----0------------------0-----------------------|
b|-----2------------------0-----------------------|
g|-----2------------------4-----------------------|
d|-----2------------------4-----------------------|
a|-----0------------------2-----------------------|
e|-----0------------------0-----------------------|
Tom waits for the morning train
Me and MR T.W. can't wait no
E C#m
e|-----0---------------------4-------------------------|
b|-----0---------------------4h5-----------------------|-fiddle around a bit with this
g|-----1---------------------6-------------------------|
d|-----2---------------------6-------------------------|
a|-----2---------------------4-------------------------|
e|-----0---------------------X-------------------------|
to take us away
more... can't wait no
more... on the downtown
train...

Outro :

e|------------------------------------0~~~---||
b|---------------------------------0---------||
g|------------------------------1------------||
d|---------------------------4---------------||
a|------------------------2------------------||
e|---------------------0---------------------||
Me and mister Tom Waits...