Anthrax — Madhouse

-------------------------------------------------------------------------------
madhouse - anthrax
-------------------------------------------------------------------------------
Tabbed by:start_something
Email:guitarist_prs@hotmail.com

Tuning:standard

e|---------------------------------------------------------------------------
B|-----------------------10---10(ph)10(ph)10(ph)10(ph)----------------------|
G|-----------------------9-------------------------------9h10p9-9--7--------|
D|---------------------------------------------------------------------9(ph)|
A|---7(H)-------------------------------------------------------------------|
E|---------------------------------------------------------------------------
use whammy bar here
e|---------------------------12b-----------1087--87---7---------------------|
B|---------------------------------------------10--108-1087-87--7-----------|
G|---------------------------------------------------------9--97--9(ph)-----|
D|---------7--7-9--9h11p9-----------------------------------------------9-7~|
A|------7-9--9--------------------------------------------------------------|
E|---7-9-------------------------------0------------------------------------|
muted whammy
e|----15b----17b(18ph)(18ph)(18ph)(18ph)------------------------------------|
B|--------------------------------------------------------------------------|
G|---------------------------------------------------7--7--7-9-7b-9(ph)~~---|
D|---------------------------------------------7--7-9--9--9-----------------|
A|------------------------------------------7-9--9--------------------------|
E|---------------------------------------------------------------------------
there its not exact but its close enough enjoy its a great song

| / slide up
| slide down
| h hammer-on
| p pull-off
| ~ vibrato
| + harmonic
| x Mute note
|(ph) pinched harmonic
===============================================================================