Anthrax — Random Acts Of Senseless Violence

Random Acts of Senseless Violence by Anthrax
>From December 1995 Guitar Magazine

(X4)
G:----------|-------------------------------------|----------|-------|
D:----------|*-----------------------------------*|----------|-------|
A:----------|*-----------------------------------*|----------|-------|
E:--------X-|---X-X-r-X-X-X-r-X-X-X-r-X-X-X-r-X---|--X-R--R--|---R---|


RIFF 1_____________________
G:----------------------------|--------------------------|----------------|
D:----------------------------|--------------------------|--RIFF-1--(X3)--|
A:----------------------------|--------------------------|----------------|
E:-0---3-0---3-0---X-X-X-X-X--|--0---3-0---3-0---X-12---|----------------|


G:------------------------------|-----------------|
D:------------------------------|*--RIFF-1--(X8)--|
A:------------------------------|*----------------|
E:--0---3-X--X-X-X-r-X-X-X-r-X--|-----------------|


RIFF 2 ________________________ (X3)
G:----------------------------------|----------------------------------|
D:----------------------------------|----------------------------------|
A:----------------------------------|----------------------------------|
E:--0---3-0---3-0---3-5-b(6)r(5)-3--|--0--3--0--3--0--3-5-b(6)r(5)--3--|


G:----------------|-----------------------------|---------------------|
D:--RIFF-2--(X3)--|-----------------------------|---------------------|
A:----------------|-----------------------------|---------------------|
E:----------------|--0---3-0--X-X-X-r-X-X-X-r-X-|--0--------3---------|


%
G:-----------------------------------|---------------------------|
D:-----------------------------------|---------------------------|
A:-----------------------------------|---------------------------|
E:--8-8-8-8-8-8-8-8-8-8-8-8-8-8-8-8--|--8-8-8-8-8-8-8-8-0---3----|

I see some - thing wrong ...


G:-----------------------------------|----------------------------|
D:-----------------------------------|----------------------------|
A:-----------------------------------|----------------------------|
E:--5-5-5-5-5-5-5-5-5-5-5-5-5-5-5-5--|--5-5-5-5-5-5-5-5-0----3----|



G:-----------------------------------|-----------------------------|
D:-----------------------------------|-----------------------------|
A:-----------------------------------|-----------------------------|
E:--8-8-8-8-8-8-8-8-8-8-8-8-8-8-8-8--|--8-8-8-8-8-8-8-8-0----3-----|


TO CODA 1.
-0- |~~~~~~~~~~~~~~~~~~~~~~~~~~~
G:-----------------------------------|---------------------------|
D:-----------------------------------|---------------------------|
A:-----------------------------------|--------------------~~~~~--|
E:--5-5-5-5-5-5-5-5-5-5-5-5-5-5-5-5--|--5-5-5-5-5-5-5-5-/-7------|



2.
~~~~~~~~~~~~~~~~~~~~~~~~~~~~~~~~~~~~~~~~~~~~~~~~ |~~~~~~~~~~~~~~~~~
G:----------------|-------------------------------|-------------------|
D:--RIFF-1--(X3)--|------------------------------*|-------------------|
A:----------------|------------------------------*|-------------------|
E:----------------|-0---3-0---X-X-X-r-X-X-X-r-X---|--5-5-5-5-5-5-5-5--|


(X7)
G:----------------------------|------------------------------|
D:----------------------------|------------------------------|
A:----------------------------|------------------------------|
E:--0--3--5--0--3--4-0-r-X-r--|--0--3--5--0--3--4-0-r-X-r-X--|


(X4) (X3)
G:--------------------------------|------------------------------|
D:*------------------------------*|*----------------------------*|
A:*------------------------------*|*----------------------------*|
E:---0--3--5--0--3--4-0-r-X-r-X---|---0--3--5--0--3--4--0-0--0---|

Ran-dom acts of sense-less...


G:----------------|----------------------------|
D:----------------|*---------------------------|
A:----------------|*---------------------------|
E:--0-------r-----|---0---3-0---3-0---3-0---5--|



1.,2.,3. 4.
|~~~~~~~~~~~~~~~~~~~~~~~~~~~ |~~~~~~~~~~~~~~~~~~~~~~~~~~
G:-----------------------------|--------------------------------|
D:----------------------------*|--------------------------------|
A:----------------------------*|--------------------------------|
E:--3---5-3---5-3---5-3---5----|---3---5-3---X-X-X-r-X-X-X-r-X--|


D.S. %
AL CODA
G:---------------------------|
D:---------------------------|
A:---------------------------|
E:--X-X-r-X-X-X-r-X-0---3----|

|
-O-CODA
|
G:----------------------------|-----------------------------------|
D:----------------------------|-----------------------------------|
A:----------------------------|-----------------------------------|
E:--5-5-5-5-5-5-5-5-0----3----|--8-8-8-8-8-8-8-8-8-8-8-8-8-8-8-8--|


G:---------------------------|----------------------------------|
D:---------------------------|----------------------------------|
A:---------------------------|----------------------------------|
E:--8-8-8-8-8-8-8-8-0---3----|--5-5-5-5-5-5-5-5-5-5-5-5-5-5-5-5-|


G:----------------|-----------------------------------|
D:----------------|-----------------------------------|
A:----------------|-----------------------------------|
E:--0------3------|--8-8-8-8-8-8-8-8-8-8-8-8-8-8-8-8--|


G:------------------------------|-----------------------------------|
D:------------------------------|-----------------------------------|
A:------------------------------|-----------------------------------|
E:--8-8-8-8-8-8-8-8-0----3------|--5-5-5-5-5-5-5-5-5-5-5-5-5-5-5-5--|


(X7)
G:-------------------------------|----------------------------------|
D:-------------------------------|*--------------------------------*|
A:--------------------~~~~~~~~~~-|*--------------------------------*|
E:--5-5-5-5-5-5-5-5-/-7----------|---0--3--5--0--3--4-0--r-X-r-X----|


G:------------------------------|
D:------------------------------|
A:------------------------------|
E:--0--3--5--0--3--4-0--r-X--r--|
/----------------------------------------
| ____ ____ |
| ( `--' .-' _T_T_T_T_ |
| |8| O O |||||||||||||||||||[o o o o/ |
| (__,--.____ `~~~`--' |
| from the desk of jaco pastorius.. |
| jazzbass@cfw.com |
| http://www.vt.edu:10021/A/acanterb/ |
----------------------------------------/