Anthrax — Room For One More

BAND: Anthrax
SONG TITLE: Room For One More (Solo)
ALBUM: Sound Of White Noise
TRANSCRIBED BY: Andrew Huelsenbeck
E MAIL ADDRESS: andrewhuelsenbeck@antisocial.com

This is the first solo that I ever figured out on my own. It is very close to being perfect.
It is not difficult to play. If there are any parts that you think could be fixed up,
please e mail me.

E|-----------------------------------------------------------|
B|-13b14----------14-14-13-13--------------------------------|
G|-12b14----------14-13-12-12-----10h12p10-------------------|
D|-----------------------------------------12----------------|
A|------------------------------------------------10b12r10-5-|
E|-----------------------------------------------------------|

E|-10h13p10----10--10h13p10----10--10----5h8p5---5--5h8p5---5--5-----------------|
B|----------13--------------13-----------------8----------8----------------------|
G|-----------------------------------------------------------------/7------9---7-|
D|-------------------------------------------------------------------------------|
A|-------------------------------------------------------------------------------|
E|-------------------------------------------------------------------------------|

E|-----------10----------------------|
B|-10-12-13-----13-12-10h12p10----10-|
G|-----------------------------12----|
D|-----------------------------------|
A|-----------------------------------|
E|-----------------------------------|

E|-----------------------------------------------------|
B|-10h13p10----10--------------------------------------|
G|----------12----12p10----10-10-------/10-12p10-------|
D|----------------------12-------12--------------10-12-|
A|-----------------------------------------------------|
E|-----------------------------------------------------|

E|------------------------------15-------16b17--17p15----17---17h20p17----------20p17-|
B|-----------15----------15-17-----17-15--------------17---------------20-17h20-------|
G|-14-16-17-----17-16-17--------------------------------------------------------------|
D|------------------------------------------------------------------------------------|
A|------------------------------------------------------------------------------------|
E|------------------------------------------------------------------------------------|

E|-20-20p17----17-17-------------------------------|
B|----------20-------20p17-20-20p17----17-17-------|
G|----------------------------------19-------19p17-|
D|-------------------------------------------------|
A|-------------------------------------------------|
E|-------------------------------------------------|

E|-----------------------------------------------------|
B|-20-20p17----17-17-----------------------------------|
G|----------19-------19p17-19-19p17----17--------------|
D|----------------------------------19----19-17--------|
A|----------------------------------------------19-17~-|
E|-----------------------------------------------------|

I hope this tab works well for you. Keep playing guitar! - Andrew Huelsenbeck