Anthrax — Safe Home

На этой странице Вы можете ознакомиться с 2 версиями подбора аккордов для гитары к песне "Safe Home" группы (исполнителя) "Anthrax".

SAFE HOME (Bassline)
As recorded by Anthrax
(From the 2003 Album WE'VE COME FOR YOU ALL)

Words and Music by Anthrax
Arranged by Anthrax

Gtr I (Db Ab Db Gb) - 'Bass'
Gtr II (Db Ab Db Gb) - 'Synth'

Intro
Q=75
3/4 4/4
Gtr II
H. S S S S S S S S S S S S S S S S
|---------|-4-4-4-4-4-4-4-4-4-4-4-4-4-4-4-4-|
|---------|---------------------------------|
|---------|---------------------------------|
|---------|---------------------------------|


S S S S S S S S S S S S S S S S
|-4-4-4-4-4-4-4-4-4-4-4-4-4-4-4-4---|
|-----------------------------------|
|-----------------------------------|
|-----------------------------------|


Verse
$
Gtr I
S S S S S S S S S S S S S S S S S S S S S S S S S S S S S S S S
||----------------------------------|-----------------------------------||
||o---------------------------------|----------------------------------o||
||o---------------------------------|----------------------------------o||
||--2---2---2---2-0-2-5-2---2---2-0-|-2-5-2---2---2-0-2-5-2-0-2-5-2-0---||


S S S S S S S S S S S S S S S S S S S S S S S S S S S S S S S S
||----------------------------------|-----------------------------------||
||o---------------------------------|----------------------------------o||
||o---------------------------------|----------------------------------o||
||--2---2---2---2-0-2-5-2---2---2-0-|-2-7-2---2---2-0-2-5-2-0-2-7-2-0---||


Pre-Chorus
W W W W
|----------|----------|----------|------|
|----------|----------|----------|------|
|-2--------|----------|-2--------|------|
|----------|-5--------|----------|-5----|


S S S S S S S S S S S S S S S S S S S S S S S S S S S S S S S S
|---------------------------------|-----------------------------------|
|---------------------------------|-----------------------------------|
|-2-2-2-2-2-2-2-2-2-2-2-2-2-2-2-2-|-----------------------------------|
|---------------------------------|-5-5-5-5-5-5-5-5-5-5-5-5-5-5-5-5---|


S S S S S S S S S S S S S S S S S S S S S S S S S S S S S S S S
|---------------------------------|------------------------------------|
|---------------------------------|-/5-5-5-5-5-5-5-5-5-5-5-5-----------|
|-2-2-2-2-2-2-2-2-2-2-2-2-2-2-2-2-|--------------------------5-3-------|
|---------------------------------|------------------------------5-3---|


3/4
S S S S S S S S S S S S S S S S H.
|---------------------------------|-------|
|---------------------------------|-------|
|---------------------------------|-------|
|-2-2-2-2-2-2-2-0-2-4-2-0-2-4-2-0-|-5-----|


Chorus
4/4
S S S S S S S S S S S S S S S S S S S S S S S S S S S S S S S S
|---------------------------------|---------------------------------|
|---------------------------------|---------------------------------|
|-2-2-2-2-2-2-2-2-2-2-2-2-2-2-2-2-|---------------------------------|
|---------------------------------|-5-5-5-5-5-5-5-5-4-4-4-4-4-4-4-4-|


3/4
S S S S S S S S S S S S S S S S H.
|---------------------------------|-------|
|---------------------------------|-------|
|-2-2-2-2-2-2-2-2-----------------|-------|
|-----------------2-2-2-0-2-4-2-0-|-5-----|


4/4
S S S S S S S S S S S S S S S S
|---------------------------------|
|---------------------------------|
|-2-2-2-2-2-2-2-2-2-2-2-2-2-2-2-2-|
|---------------------------------|


To Coda D.S. al Coda
3/4 4/4
E S S +S S S S E E S S S S S S S S S S S S S S S S
|---------------------|-4-4-4-4-4-4-4-4-4-4-4-4-4-4-4-4-|
|---------------------|---------------------------------|
|---------------------|-2-------------------------------|
|-5-5-5-(5)-5-5-5-4-4-|---------------------------------|
W (Gtr 1 play lower note, Gtr 2 play the octave)


Break
&
Gtr I
W W W W
|----------|----------|----------|------|
|----------|----------|----------|------|
|-2--------|----------|-2--------|------|
|----------|-5--------|----------|-5----|


H=H
S S S S S S S S S S S S S S S S S S S S S S S S S S S S S S S S
|---------------------------------|---------------------------------|
|---------------------------------|---------------------------------|
|-2-2-2-2-2-2-2-2-2-2-2-2-2-2-2-2-|---------------------------------|
|---------------------------------|-5-5-5-5-5-5-5-5-5-5-5-5-5-5-5-5-|


S S S S S S S S S S S S S S S S S S S S S S S S S S S S S S S S
|---------------------------------|------------------------------------|
|---------------------------------|------------------------------------|
|-2-2-2-2-2-2-2-2-2-2-2-2-2-2-2-2-|------------------------------------|
|---------------------------------|-5-5-5-5-5-5-5-5-5-5-5-5-5-5-5-5----|


Q=79
S S S S S S S S S S S S S S S S S S S S S S S S S S S S S S S S
|---------------------------------|-----------------------------------|
|---------------------------------|-----------------------------------|
|-2-2-2-2-2-2-2-2-2-2-2-2-2-2-2-2-|-2-2-2-2-2-2-2-2-2-2-2-2-2-2-2-2---|
|---------------------------------|-----------------------------------|


Breakdown
S S S S S S S S S S S S S S S S S S S S S S S S S S S S S S S S
|---------------------------------|-----------------------------------|
|---------------------------------|-----------------------------------|
|-2-2-2-2-2-2-2-2-2-2-2-2-2-2-2-2-|-0-0-0-0-0-0-0-0-0-0-0-0-0-0-0-0---|
|---------------------------------|-----------------------------------|


S S S S S S S S S S S S S S S S S S S S S S S S S S S S S S S S
|---------------------------------|-----------------------------------|
|---------------------------------|-----------------------------------|
|---------------------------------|-----------------------------------|
|-5-5-5-5-5-5-5-5-5-5-5-5-5-5-5-5-|-4-4-4-4-4-4-4-4-4-4-4-4-4-4-4-4---|


S S S S S S S S S S S S S S S S S S S S S S S S S S S S S S S S
|---------------------------------|-----------------------------------|
|---------------------------------|-----------------------------------|
|-2-2-2-2-2-2-2-2-2-2-2-2-2-2-2-2-|-4-4-4-4-4-4-4-4-4-4-4-4-4-4-4-4---|
|---------------------------------|-----------------------------------|


S S S S S S S S S S S S S S S S S S S S S S S S S S S S S S S S
|---------------------------------|-----------------------------------|
|---------------------------------|-----------------------------------|
|---------------------------------|-----------------------------------|
|-5-5-5-5-5-5-5-5-5-5-5-5-5-5-5-5-|-4-4-4-4-4-4-4-4-4-4-4-4-4-4-4-4---|


Guitar Solo
S S S S S S S S S S S S S S S S S S S S S S S S S S S S S S S S
|---------------------------------|-----------------------------------|
|---------------------------------|-----------------------------------|
|-2-2-2-2-2-2-2-2-2-2-2-2-2-2-2-2-|-0-0-0-0-0-0-0-0-0-0-0-0-0-0-0-0---|
|---------------------------------|-----------------------------------|


S S S S S S S S S S S S S S S S S S S S S S S S S S S S S S S S
|---------------------------------|-----------------------------------|
|---------------------------------|-----------------------------------|
|---------------------------------|-----------------------------------|
|-5-5-5-5-5-5-5-5-5-5-5-5-5-5-5-5-|-4-4-4-4-4-4-4-4-4-4-4-4-4-4-4-4---|


S S S S S S S S S S S S S S S S S S S S S S S S S S S S S S S S
|---------------------------------|-----------------------------------|
|---------------------------------|-----------------------------------|
|-2-2-2-2-2-2-2-2-2-2-2-2-2-2-2-2-|-4-4-4-4-4-4-4-4-4-4-4-4-4-4-4-4---|
|---------------------------------|-----------------------------------|


S S S S S S S S S S S S S S S S S S S S S S S S S S S S S S S S
|---------------------------------|-----------------------------------|
|---------------------------------|-----------------------------------|
|---------------------------------|-----------------------------------|
|-0-0-0-0-0-0-0-0-0-0-0-0-0-0-0-0-|-4-4-4-4-4-4-4-4-4-4-4-4-4-4-4-4---|


3/4
S S S S S S S S S S S S S S S S H.
|---------------------------------|-------|
|---------------------------------|-------|
|---------------------------------|-------|
|-2-2-2-2-2-2-2-2-2-2-2-2-2-2-2-2-|-5-----|


Out-Chorus
4/4
S S S S S S S S S S S S S S S S S S S S S S S S S S S S S S S S
|---------------------------------|----------------------------------|
|---------------------------------|----------------------------------|
|-2-2-2-2-2-2-2-2-2-2-2-2-2-2-2-2-|----------------------------------|
|---------------------------------|-5-5-5-5-5-5-5-5-4-4-4-4-4-4-4-4--|


3/4
S S S S S S S S S S S S S S S S H.
|---------------------------------|-------|
|---------------------------------|-------|
|-2-2-2-2-2-2-2-2-----------------|-------|
|-----------------2-2-2-0-2-4-2-0-|-5-----|


4/4 3/4
S S S S S S S S S S S S S S S S S S S S S S S S S S S S
||----------------------------------|-----------------------------||
||o---------------------------------|----------------------------o||
||o-2-2-2-2-2-2-2-2-2-2-2-2-2-2-2-2-|----------------------------o||
||----------------------------------|-5-5-5-5-5-5-5-5-4-4-4-4-----||


4/4
S S S S S S S S S S S S S S S S S S S S S S S S S S S S S S S S
|---------------------------------|----------------------------------|
|---------------------------------|----------------------------------|
|-2-2-2-2-2-2-2-2-2-2-2-2-2-2-2-2-|----------------------------------|
|---------------------------------|-5-5-5-5-5-5-5-5-4-4-4-4-4-4-4-4--|


3/4
S S S S S S S S S S S S S S S S E S S +S S S S E E
|---------------------------------|-----------------------|
|---------------------------------|-----------------------|
|-2-2-2-2-2-2-2-2-----------------|-----------------------|
|-----------------2-2-2-0-2-4-2-0-|-5-5-5-(5)-5-5-5-4-4---|


4/4
S S S S S S S S S S S S S S S S E S S +S S S S E E +Q
|---------------------------------|----------------------------*|
|---------------------------------|----------------------------*|
|---------------------------------|----------------------------*|
|-2-2-2-2-2-2-2-2-2-2-2-2-2-2-2-2-|-5-5-5-(5)-5-5-5-4-4-(4)----*|
Anthrax – Safe Home
We’ve Come For You All
Tab By (Chris Frazier)
Dropped D Half Step Down (eb,Bb,Gb,Db,Ab,Db)

Intro(0.00)
e----------------------------------------------------------------------
B----3-----3--3---2---2---3--------------------------------------------
G----2-----2--2---2---2---2--------------------------------------------
D----4-----4--4---2---2---x--------------------------------------------
A----2--x--2--2---0---0---2--------------------------------------------
D----------------------------------------------------------------------
^ Let Ring

Verse (part 1)(0.08) x2
e----------------------------------------------------------------------
B----------------------------------------------------------------------
G----------------------------------------------------------------------
D---x---x----2--2--2--2-0-2-5-2--2--2-0-2-5-2--2--2-0-2-5-2-0-2-5-2-0--
A---x---x----2--2--2--2-0-2-5-2--2--2-0-2-5-2--2--2-0-2-5-2-0-2-5-2-0--
D---x---x----2--2--2--2-0-2-5-2--2--2-0-2-5-2--2--2-0-2-5-2-0-2-5-2-0--
I’ve been down this road once or twice before…

Verse (part 2)(0.21) x2
e----------------------------------------------------------------------
B----------------------------------------------------------------------
G--------------------------------2---------------------2---------------
D---2--2--2--2-0-2-5-2--2--2-0-2-2-2--2--2-0-2-5-2-0-2-2-2-0-----------
A---2--2--2--2-0-2-5-2--2--2-0-2-0-2--2--2-0-2-5-2-0-2-0-2-0-----------
D---2--2--2--2-0-2-5-2--2--2-0-2---2--2--2-0-2-5-2-0-2---2-0-----------
Wait…

Chorus(0.34)
e----------------------------------------------------------------------
B----------------------------------------------------------------------
G---7------------------------4-----------------------------------------
D---9------------------------5-----------------------------------------
A---9------------------------5-----------------------------------------
D---9------------------------5-----------------------------------------
I’ve been places in my head…
e----------------------------------------------------------------------
B----------------------------------------------------------------------
G---7------------------------4-----------------------------------------
D---9------------------------5-----------------------------------------
A---9------------------------5-----------------------------------------
D---9------------------------5-----------------------------------------
Go down my path just like a dream…
e----------------------------------------------------------------------
B----------------------------------------------------------------------
G---7777777777777777---------4444444444444444--------------------------
D---9999999999999999---------5555555555555555--------------------------
A---9999999999999999---------5555555555555555--------------------------
D---9999999999999999---------5555555555555555--------------------------
For out of nowhere you came strong as stone



e—---------------------------------------------------------------------
B----------------------------------------------------------------------
G----7777777777777777---------4444444444444444-------------------------
D----9999999999999999---------5555555555555555-------------------------
A----9999999999999999---------5555555555555555-------------------------
D----9999999999999999---------5555555555555555-------------------------
And now I never have to be alone

e----------------------------------------------------------------------
B----------------------------------------------------------------------
G---2222222222222222----------7-7-7-77-------7-------------------------
D---2222222222222222----------9-9-9-99--7-7--9-------------------------
A---2222222222222222----------9-9-9-99--7-7--9-------------------------
D---2222222222222222----------9-9-9-99--7-7--9-------------------------
What it is I know… You have always been my safe home

e----------------------------------------------------------------------
B----------------------------------------------------------------------
G---7777777777777777---------44444444-----------77777777---------------
D---9999999999999999---------55555555-44444444--99999999-2-2-0-2-4-2-0-
A---9999999999999999---------55555555-44444444--99999999-2-2-0-2-4-2-0-
D---9999999999999999---------55555555-44444444--99999999—2-2-0-2-4-2-0-

e----------------------------------------------------------------------
B----------------------------------------------------------------------
G---7-7-7-77-------7----77777777-----7-7-7-77-------7------------------
D---9-9-9-99--7-7--9----99999999-----9-9-9-99--7-7--9------------------
A---9-9-9-99--7-7--9----99999999-----9-9-9-99--7-7--9------------------
D---9-9-9-99--7-7--9----99999999-----9-9-9-99--7-7--9------------------
You have always been my safe home, My whole world has moved on

Verse 2 (1.25)

Chorus 2 (1.52)

Interlude(2.43)
e----------------------------------------------------------------------
B----------------------------------------------------------------------
G---4-----7-----4------------------------------------------------------
D---5-----9-----5------------------------------------------------------
A---5-----9-----5------------------------------------------------------
D---5-----9-----5------------------------------------------------------

X3
e----------------------------------------------------------------------
B----------------------------------------------------------------------
G---7----4----7----4---------------7777777777--------------------------
D---9----5----9----5---------------9999999999--------------------------
A---9----5----9----5---------------9999999999--------------------------
D---9----5----9----5---------------9999999999--------------------------
Places in my heeeeeeeaaaad!!




Lead 1 double guitar (3.12)
e----------------------------------------------------------------------
B----------------------------------------------------------------------
G----14----------------------------------14----------------------------
D16-----16---14---16---12---14-------16-----16---14---16---12---14-----
A-------------------------------14----------------------------------10-
D----------------------------------------------------------------------

e----------------------------------------------------------------------
B----------------------------------------------------------------------
G----14------------------------------------14-----------14-------------
D16-----16---14---16---12---14--------/16------16--/16-----16----------
A-------------------------------9--------------------------------------
D----------------------------------------------------------------------
X2
Lead 2 Double Guitar
e—---------------------------------------------------------------------
B----------------------------------------------------------------------
G----------------------------------------------------------------------
D----7-----------------------------7-----------------------------------
A9------9---7---9---5---7--2---9------9---7---9---5---7----------------
D--------------------------------------------------------5-------------

e----------------------------------------------------------------------
B----------------------------------------------------------------------
G----------------------------------------------------------------------
D----7---------------------------------7-----------------7-------------
A9-------9---7---9---5---7-------/9---------9------/9---------9--------
D---------------------------4------------------------------------------
X2

Solo (3.36)
e----------------------------------------------------------------------
B----------------------------------------------------------------------
G------------------14-------16p14-----------16b18-16b19---14~~---------
D-----9~~----/16--------16----------16---------------------------------
A----------------------------------------------------------------------
D----------------------------------------------------------------------

e---14---------------------17-----------17------------17------17-------
B---17b19~~~~~~~----17b19-------17b19---------17b19----------17b19-----
G----------------------------------------------------------------------
D----------------------------------------------------------------------
A----------------------------------------------------------------------
D----------------------------------------------------------------------

e----------------------------------------------------------------------
B---------------------------------T15p14p12T17p15p12T15p14p12T19p15p12-
Gxx--7--xxxxxxxx—7/9-xx—7/9-14b16--------------------------------------
Dxx--7--xxxxxxxx-7/9-xx-7/9--------------------------------------------
A----------------------------------------------------------------------
D----------------------------------------------------------------------




e-----------------7----------------------10----------9-----------------
B-----------------10b12~~~~~~~~~~~~------13b15~~~~---12b14~~~~---------
G—16p14----------------------------------------------------------------
D--------16~~~---------------------------------------------------------
A----------------------------------------------------------------------
D----------------------------------------------------------------------

e-12----------------14-------------------------------------------------
B—15b17~~~~~~~~-----17b19~~~~~~~~~~~-----------------------------------
G----------------------------------------------------------------------
D----------------------------------------------------------------------
A----------------------------------------------------------------------
D----------------------------------------------------------------------

Rhythm for Solo
e----------------------------------------------------------------------
B----------------------------------------------------------------------
G----------------------------------------------------------------------
D--9999999999999999-7777777777777777-5555555555555555-4444444444444444-
A--9999999999999999-7777777777777777-5555555555555555-4444444444444444-
D--9999999999999999-7777777777777777-5555555555555555-4444444444444444-


e—---------------------------------------------------------------------
B----------------------------------------------------------------------
G----------------------------------------------------------------------
D--9999999999999999-7777777777777777-5555555555555555-4444444444444444-
A--9999999999999999-7777777777777777-5555555555555555-4444444444444444-
D--9999999999999999-7777777777777777-5555555555555555-4444444444444444-

e----------------------------------------------------------------------
B----------------------------------------------------------------------
G----------------------------------------------------------------------
D--2222222222222222----------------------------------------------------
A--2222222222222222----------------------------------------------------
D--2222222222222222----------------------------------------------------
Back into end of chorus

Lyrics
Verse 1

I've been down this road once or twice before
through the open door
I come falling through it
there's a sign post up ahead
like a watershed
and it opens my eyes
ways, for me to begin
to be born again
and knowing for the first time
ways, all so differently
shine for me to see
the better man that I am

Chorus

I've been places in my head
behind me worse than what's ahead
and on my path just like a dream
takes me from the in between
from out of nowhere you came strong as stone
and now I'll never have to be alone
what it is I know

you have always been my safe home
I walk, I run, I burn out into you
you have always been my safe home
my whole world has moved on

Verse 2

I know what I am and I'll always be
your reality, is better than I could dream
all my fears turn from black to white
and I’d stand and fight
the whole world for you
faith, and destiny
I never did believe
my only god is love and
faith, what I see in you
and I can hold it true
like a weight in my hand.