Anti-flag — Bring Out Your Dead

На этой странице Вы можете ознакомиться с 3 версиями подбора аккордов для гитары к песне "Bring Out Your Dead" группы (исполнителя) "Anti-flag".

i know for a fact that all of the other bass tabs for this song are way off and they
don't even have the entire song tabed. but this tab is the whole song and 100% accurate!

the bass should be tuned a half step down

------------------------------------------------------------|
-----88-77-55-33-55-33-22-------------------- intro #1-| (4 times)
--55----------------------------333---5555555---------------|
---------------------------1111-----3-----------------------|

--------------------------------------------------------------------|
-----88-77-55-33-55-33-22---------------------- intro #2-------| (1 time)
--55-------------------------33333333-11111111----------------------|
--------------------------------------------------------------------|

------------------------------------------------------------------------|
-----88-77-55-33-55-33-22------------------- intro #3-------| (1 time)
--55-----------------------33333333-------------------------------------|
-------------------------------------33333333---------------------------|


play intro #1 1 time
play intro #3 1 time

then this (A)
-----------------------------------------|
-----------------------------------------|
-88--888-------------55-668--------------|
---------8--88--8888--------6--66--6666--|
then (B)
-----------------------------------------------|
-------------------------------------55-77-88--|
-88--888-------------------55-66-88------------|
---------8--88--8888-66-88---------------------|
then (A)
------------------------------------------|
------------------------------------------|
-88--888-------------55-668---------------|
---------8--88--8888--------6--66--6666---|
then (C)
------------------------------------------------------------------------|
-------------------------------------55-77-88-----------------55-77-88--|
-88--888-------------------55-66-88----------------55-66-7-8------------|
---------8--88--8888-66-88-------------------66-88----------------------|

intro #1 five times

intro #2 once

intro #3 once

then play (A)
then play (B)
then play (C)

then
----------------------------------------------------|
----------------------------------------------------| play this part 4 times
-55--5558--866-55-----------------------------------|
-------------------88--55--5556--666-6666-----------|

then you play the bridge
bridge
-------------------------12-12-10-10------12-12-15--14--12--10-10---------------|
-------------------12-12-------------12-12-------------------------12-12-10-10--|
-------12-12-10-10--------------------------------------------------------------|
-10-10--------------------------------------------------------------------------|

-------|
-------| play bridge 4 times
-12-12
------

on the 2nd time of the bridge instead of 15--14--12-|
play 14--13--11-------------------------------------|

THERE YOU GO
BRING OUT YOUR DEAD
BY ANTI-FLAG
Normal Tuning. This is played fast but it is an easy rhythm.

G------------------------------------------
D-------7-7--6-6--4-4--2-2--4-4--2-2--1-1--
A--4-4-------------------------------------
E------------------------------------------

G------------------------------------------
D-----------2-2-2-2------------4-4-4-4-----
A--0-0-0-0-----------2-2-2-2---------------
E------------------------------------------

this repeats through most of the song. This is a good song with a good bass line.
Enjoy

-Nick-
Anti-Flag - Bring Out Your Dead
Paul (Punkbassist@aol.com)

ANTI-FLAG: Bring Out Your Dead
Well I only got the bass intro down.
It's played really fast.

G|------------------------------------------------
D|------------------------------------------------
A|-00-77-55-33-55-33-11-33----3333----55555555----
E|------------------------1111----3333------------