Anti-flag — Captain Anarchy

На этой странице Вы можете ознакомиться с 4 версиями подбора аккордов для гитары к песне "Captain Anarchy" группы (исполнителя) "Anti-flag".

=============================
Captain Anarchy - Anti-Flag
=============================

Super Easy. Half-step down tuning, as always. If this Tab isn't Prefect it's close.
Have fun.

Intro
Gb---------------------------------4-4-4-4-4-4-4-4---9-9-9-9-9-9-9-9-
Db-------------------------------------------------------------------
Ab-7-7-7-7-7-7-7-7-7-7-7-7-7-7-7-7-----------------------------------
Eb-------------------------------------------------------------------

Pre-Chorus
Gb-----------------------------------------------------
Db-----------------------------------------------------
Ab-7-7-7-7-7-7-7-7---5-5-5-5-5-5-5-5---0-0-0-0-0-0-0-0-
Eb-----------------------------------------------------
(2x)
Gb-----------------------------------2-2-2-2-2-2-2-2-
Db---------------------------------------------------
Ab-7-7-7-7-7-7-7-7---5-5-5-5-5-5-5-5-----------------
Eb---------------------------------------------------

Chorus
Gb-----------------------------------------------------
Db-----------------------------------------------------
Ab-7-7-7-7-7-7-7-7---5-5-5-5-5-5-5-5---0-0-0-0-0-0-0-0- (x7)
Eb-----------------------------------------------------

Gb-9-9-9-9-9-9-9-9---7-7-7-7-7-7-7-7---2-2-2-2-2-2-2-2-
Db-----------------------------------------------------
Ab-----------------------------------------------------
Eb-----------------------------------------------------

Pre-Chorus

Chorus

Verse
Gb-----------------------------------
Db-----------------------------------
Ab-2-2-2-2-2-2-2-2---5-5-5-5-5-5-5-5- (3x)
Eb-----------------------------------

Gb------------------------------------------------------------------------
Db------------------------------------------------------------------------
Ab-2-2-2-2-2-2-2-2---4-4-4-4-4-4-4-4---5-5-5-5-5-5-5-5---7-7-7-7-7-7-7-7--
Eb------------------------------------------------------------------------

Bridge
Gb-----------------------------------------------------
Db-----------------------------------------------------
Ab-7-7-7-7-7-7-7-7---5-5-5-5-5-5-5-5---0-0-0-0-0-0-0-0- (2x)
Eb-----------------------------------------------------

Gb-----------------------------------2-2-2-2-2-2-2-2-
Db---------------------------------------------------
Ab-7-7-7-7-7-7-7-7---5-5-5-5-5-5-5-5-----------------
Eb---------------------------------------------------

Gb-----------------------------------------------------
Db-----------------------------------------------------
Ab-7-7-7-7-7-7-7-7---5-5-5-5-5-5-5-5---0-0-0-0-0-0-0-0-
Eb-----------------------------------------------------

Chorus

Gb-9-9-9-9-9-9-9-9---7-7-7-7-7-7-7-7-7---2-2-2-2-2-2-2-2-
Db-------------------------------------------------------
Ab-------------------------------------------------------
Eb-------------------------------------------------------
Anti-Flag:
Captain Anarchy
Tabbed by: intense@westol.com

this is tabbed in normal antiflag tuning (half step down). if you're
regular tuning, just play everything one fret lower than what it says
on this tab

Intro:
Gb-----------------------------9-9-9-9-9-9-9-
Db---------------9-9-9-9-9-9-9---------------
Ab-7-7-7-7-7-7-7-----------------------------
Eb-------------------------------------------


Verse/Chorus:
Gb-------------------------------------------------
Db-------------------------------------------------
Ab-7-7-7-7-7-7-7-7-7-7-7-7-5-5-5-5-5-5-------------
Eb-------------------------------------5-5-5-5-5-5-

Line right before start of Verse:
Gb-------------------------------------------------
Db-------------------------------------7-7-7-7-7-7-
Ab-7-7-7-7-7-7-7-7-7-7-7-7-5-5-5-5-5-5-------------
Eb-------------------------------------------------

Last line of Chorus:
Gb-9-9-9-9-9-9-9-9-9-9-9-9-7-7-7-7-7-7-------------
Db-------------------------------------7-7-7-7-7-7-
Ab-------------------------------------------------
Eb-------------------------------------------------


Bridge:
Gb---------------------------------------
Db---------------------------------------
Ab---------------------5-5-5-5-5-5-5-5-5- (3x)
Eb-7-7-7-7-7-7-7-7-7-7-------------------

then

Gb-----------------------------
Db-----------------------------
Ab---------4-4-4--5-5-5--7-7-7-
Eb-7-7-7-----------------------
Artist:  Anti Flag
Song: Captain Anarchy
Album: A New Kind of Army
Tabbed by: Rick (rickrack97@hotmail.com)
AIM: rickrack97


Chords:

D#5 (x688xx)
C#5 (x466xx)
G#5 (466xxx)
Bb5 (688xxx)
C5 (8-10-10xxx)

Intro:

E|--------------------------------------------------------------|
B|--------------------------------------------------------------|
G|----------------8---------------------------------------------|
D|----------------8--palm mute a whole lot----------------------|
A|----------------6---------------------------------------------|
E|-pick scrape--------------------------------------------------|

Intro 2/Chorus:

E|------------------------------------------------------------------|
B|------------------------------------------------------------------|
G|--8-8-8-8-8-8-8-8-8-8-8-8-8-8-8-8-6-6-6-6-6-6-6-6-----------------|
D|--8-8-8-8-8-8-8-8-8-8-8-8-8-8-8-8-6-6-6-6-6-6-6-6-6-6-6-6-6-6-6-6-|
A|--6-6-6-6-6-6-6-6-6-6-6-6-6-6-6-6-4-4-4-4-4-4-4-4-6-6-6-6-6-6-6-6-|
E|--------------------------------------------------4-4-4-4-4-4-4-4-|

Intro 3: intro 2/chorus is played as well

E|--------------------------------------------------------------|
B|--------------------------------------------------------------|
G|-8-6---8-6---10-8-6--8-6-----8-6---8-6----10-8-6--8~~~--------|
D|-----8-----8-------------8-------8-----8----------------------|
A|--------------------------------------------------------------|
E|--------------------------------------------------------------|

Verse:

E|--------------------------------------------------------------|
B|--------------------------------------------------------------|
G|--8--88888888--8--88888888--6--66666666-----------------------|
D|--8--88888888--8--88888888--6--66666666--6--66666666----------|
A|--6--66666666--6--66666666--4--44444444--6--66666666----------|
E|-----------------------------------------4--44444444----------|
|-------| |-------| |-------| |-------|
p.m. p.m. p.m. p.m.

Bridge: this part is played three times then then next part is played

E|-----------------------------------|
B|-----------------------------------|
G|-----------------6-6-6-6-6-6-6-6---|
D|-8-8-8-8-8-8-8-8-6-6-6-6-6-6-6-6---|
A|-8-8-8-8-8-8-8-8-4-4-4-4-4-4-4-4---|
E|-6-6-6-6-6-6-6-6-------------------|

cont.
E|--------------------------------------------------------------|
B|--------------------------------------------------------------|
G|--------------------6-6--6-8-8-8-8---8------------------------|
D|--8-8--8-10-10--10--6-6--6-8-8-8-8---8--let ring four times---|
A|--8-8--8-10-10--10--4-4--4-6-6-6-6---6----then do a pick------|
E|--6-6--6--8--8---8---------------------------scrape-----------|

After that, play intro 3 - three times palm muted, once not palm muted,
then play the chorus a few times and end on a D#5.

That's all. Good song. Later.
Intro 
e|---------------------------------------------------------------------------|
B|---------------------------------------------------------------------------|
G|--------------------8xxxxxxxx----------------------------------------------|
D|pick slide, then:---8xxxxxxxx----------------------------------------------|
A|--------------------6xxxxxxxx----------------------------------------------|
E|---------------------------------------------------------------------------|

After that(also Chorus) -
e|---------------------------------------------------------------------------|
B|---------------------------------------------------------------------------|
G|--8--6---------------------------------------------------------------------|
D|--8--6--6------------------------------------------------------------------|
A|--6--4--6------------------------------------------------------------------|
E|--------4------------------------------------------------------------------|

Verses -
e|---------------------------------------------------------------------------|
B|---------------------------------------------------------------------------|
G|--8xxx8xxx--6xx------------------------------------------------------------|
D|--8xxx8xxx--6xx--6xxx------------------------------------------------------|
A|--6xxx6xxx--4xx--6xxx------------------------------------------------------|
E|-----------------4xxx------------------------------------------------------|

Riff inbetween verses/solo -
e|---------------------------------------|
B|---------------------------------------|
G|--8-6-----8-6-----10-8-6-8-6-----------|
D|-------8-------8--------------8--------|
A|---------------------------------------|
E|---------------------------------------|


Bridge - (at the the end of the bridge the riff is played palm muted)
E|----------------------------------|
B|----------------------------------|
G|-3----6---------------------------|
D|-3----6---------------------------|
A|-1----4---------------------------|
E|----------------------------------|