Anti-flag — Die For Your Government

На этой странице Вы можете ознакомиться с 4 версиями подбора аккордов для гитары к песне "Die For Your Government" группы (исполнителя) "Anti-flag".

ARTIST:Anti Flag
SONG:Die For The Government
TABby:Will
E-MAIL:Bidnet16@aol.com

Intro/Chorus:

D-----------3----------------3--------------------------
A-5-1----5-1--3-5-1------5-1----------------------------
E-----1-3-------------1-3-------------------------------

Verse:

D--00320-320--------------------------------------------
A-------3-------31013-----------------------------------
E--------------1----------------------------------------

Bridge:

G-000032--0000-------------------------------------------
D-------3------03-----------------------------
regular tuning just play as it says There are no 2 digit numbers. 
Tabed by: Jason (punk_rawk180@hotmail.com)

Intro/Chorus/Out-tro (repeat as needed)
G----------------------------------------
D----------------------------------------
A----4444----------------4444------77----
E---------5555-0000-2222------5555----777

G-----------------------------------
D-----------------------------------
A----4444----------------4444------7
E---------5555-0000-2222------5555--

Verse
G-------------------------(repeat as needed)
D-------------------------
A---44-21-44-21-4---------
E-----------------22-542--

Pre-Chorus and Bride
G---------------------
D---------------------
A---44444444----------
E-------------55555555
Intro:slide pick

Verse/chorus:
E|----------------------------------------------|
B|----------------------------------------------|
G|--6xx--------------6xx-----999------6---------|
D|--6xx-7xx-222-444--6xx-7xx-999-999--6---------|
A|--4xx-7xx-222-444--4xx-7xx-777-999--4---------|
E|------5xx-000-244------5xx-----777------------|
*let the last chord ring and then strum sevral times and let ring again

verse:(all palm muted picking)
E|------------------------------------------------------------------|
B|------------------------------------------------------7777--------|
G|--66666666666666666666--6666777766664444--666677776666------------|
D|------------------------------------------------------------------|
A|------------------------------------------------------------------|
E|------------------------------------------------------------------|
*the first bit of picking on the 6th fret is plucked a lot of times just listen to
it for timing.

Add in a couple pick scraps and thats the song.
Song: Die For Your Government
Artist: Anti-Flag
Album: Die For The Government
Tuning: Standard (ebgadE)

Intro:
[---------------------------------------------------------------------------]
[---------------------------------------------------------------------------]
[-------------6-6-6-----------------------6-6-6---------9-9-9-9-------------]
[-Pick-Slide--6-6-6--7-7-7--2-2-2--4-4-4--6-6-6--7-7-7--9-9-9-9--9-9-9------]
[-------------4-4-4--7-7-7--2-2-2--4-4-4--4-4-4--7-7-7--7-7-7-7--7-7-7------]
[--------------------5-5-5--0-0-0--2-2-2---------5-5-5-----------7-7-7------]

Then:
[---------------------------------------------------------------------------]
[---------------------------------------------------------------------------]
[-6-6-6-----------------------6-6-6---------9-------------------------------]
[-6-6-6--7-7-7--2-2-2--4-4-4--6-6-6--7-7-7--9-------------------------------]
[-4-4-4--7-7-7--2-2-2--4-4-4--4-4-4--7-7-7--7-------------------------------]
[--------5-5-5--0-0-0--2-2-2---------5-5-5----------------------------------]

Pre-Verse:
[---------------------------------------------------------------------------]
[---------------------------------------------------------------------------]
[-6------6------------------------------------------------------------------]
[-6-Ring-6-Ring--Pick-Slide-------------------------------------------------]
[-4------4-------Pick-Slide-------------------------------------------------]
[---------------------------------------------------------------------------]

Verse: *Play 50-55x (M=Mute Note Above/Below)
[---------][---------------------------][-----------------------------------]
[-M-------][-MM----MM----MM-----MM-77--][-----------------------------------]
[-6*------][-66-77-66-44-66-77--66-----][-6-6--6-6--6-6--6-6-6-6-6-6--------]
[---------][---------------------------][-6-6--6-6--6-6--6-6-6-6-6-6--------]
[---------][---------------------------][-4-4--4-4--4-4--4-4-4-4-4-4--------]
[---------][---------------------------][-----------------------------------]

Play Intro
Pre-Verse
Verse
Play Intro (with Last Note 3x)

Bridge:
[--------------------------][-------------------------------]
[--------------------------][-------------------------------]
[-6-6-6-6-6-6--------------][-6-6-6-6-6-6---------------9-9-]
[-6-6-6-6-6-6--7-7-7-7-7-7-][-6-6-6-6-6-6--7-7-7-7-7-7--9-9-]
[-4-4-4-4-4-4--7-7-7-7-7-7-][-4-4-4-4-4-4--7-7-7-7-7-7--7-7-]
[--------------5-5-5-5-5-5-][--------------5-5-5-5-5-5------]

Then:
[---------------------------------------------------------------------------]
[---------------------------------------------------------------------------]
[-6-6-6-6-6-6---------------6-6-6-6-6-6-------------------------------------]
[-6-6-6-6-6-6--7-7-7-7-7-7--6-6-6-6-6-6-7--7--7--7-7-7-7-7------------------]
[-4-4-4-4-4-4--7-7-7-7-7-7--4-4-4-4-4-4-7--7--7--7-7-7-7-7------------------]
[--------------5-5-5-5-5-5--------------5--5--5--5-5-5-5-5------------------]

Chorus 2: 2:44 2.8 Palm Mute! Stop Here! (2.5!)
[---------------------------------------------------------------------------]
[---------------------------------------------------------------------------]
[-6-6-6-6-----------------------------6-6-6-6----------9-9-9-9-9------------]
[-6-6-6-6--7-7-7-7--2-2-2-2--4-4-4-4--6-6-6-6-7-7-7-7--9-9-9-9-9--9-9-9-9---]
[-4-4-4-4--7-7-7-7--2-2-2-2--4-4-4-4--4-4-4-4-7-7-7-7--7-7-7-7-7--9-9-9-9---]
[----------5-5-5-5--0-0-0-0--2-2-2-2----------5-5-5-5-------------7-7-7-7---]

Then:
NO PALM MUTES!
[---------------------------------------------------------------------------]
[---------------------------------------------------------------------------]
[---------9-9-9-9-----------------------------------------------------------]
[-7-7-7---9-9-9-9---9-9-9---------------------------------------------------]
[-7-7-7---7-7-7-7---9-9-9---------------------------------------------------]
[-5-5-5-------------7-7-7---------------------------------------------------]

Intro 5x (Fifth During Fadeout!!!)
The Bridge And The Rest Of The Song Use Pretty Much The Same Chords???