Anti-flag — Drink Drank Punk

На этой странице Вы можете ознакомиться с 3 версиями подбора аккордов для гитары к песне "Drink Drank Punk" группы (исполнителя) "Anti-flag".

SONG:  DRINK, DRANK, PUNK
BAND: ANTI-FLAG
TABBED BY: DAN HAVOC, BASSIST FOR THE NEUTRALS

INTRO:

G--------------------------------------------------------------------------------
D-----------------3-4-5-------------------------------------------3-4-5-------- ( x2) A--------------4-------------------------4-3-2-1---------------4--------------4-|
E-4-4-4-4-4--------------4-4-4-4-4---------------4-4-4-4-4---------4-4-4-4-4---

VERSE:
G-----------------R-------------------R------------------R---------------------R
D-----------------E-------------------E-------------------E--------------------E
A--------------4--S---------------4-S---------------4-S-----------------4--S
E-4-4-4-4-4----T-4-4-4-4-4----T-4-4-4-4-4----T-4-4-4-4-4-----T

CHORUS: ( x3) ( x1)
G--------------------------| G------------------|
D------------------3-4-5-| D------------------|
A---------------4----------| A---------------4-|
E-4-4-4-4-4-------------| E-4-4-4-4-4----|

BRIDGES:
G------------------------------------------------------------|
D------------------------------------------------------------|
A-2-2-2-2-2---4-4-4-4-4-6-6-6-6-6-6-6-6-6-6-|
E------------------------------------------------------------|

THATS IT!
Anti-Flag..Drink, Drank punk
/-no ring(stop right away)

e-------------------------------------------------------------
B-------------------------------------------------------------
G---------6-6-6-6---------6-6-6-6---------6-6-6-6---------6---
D-6-6-6-6-6-6-6-6-6-6-6-6-6-6-6-6-6-6-6-6-6-6-6-6-6-6-6-6-6--- (INTRO)
A-6-6-6-6-4-4-4-4-6-6-6-6-4-4-4-4-6-6-6-6-4-4-4-4-6-6-6-6-4---
E-4-4-4-4---------4-4-4-4---------4-4-4-4---------4-4-4-4-----

e----------/----------/----------/-----------
B----------/----------/----------/-----------
G---------6/---------6/---------6/---------6-
D-6-6-6-6-6/-6-6-6-6-6/-6-6-6-6-6/-6-6-6-6-6-
A-6-6-6-6-4/-6-6-6-6-4/-6-6-6-6-4/-6-6-6-6-4-
E-4-4-4-4--/-4-4-4-4--/-4-4-4-4--/-4-4-4-4---
i want drink more until pukeeee
to beer i

e-------------------------------------------------------------
B-------------------------------------------------------------
G---------6-6-6-6---------6-6-6-6---------6-6-6-6---------6---
D-6-6-6-6-6-6-6-6-6-6-6-6-6-6-6-6-6-6-6-6-6-6-6-6-6-6-6-6-6---
A-6-6-6-6-4-4-4-4-6-6-6-6-4-4-4-4-6-6-6-6-4-4-4-4-6-6-6-6-4---
E-4-4-4-4---------4-4-4-4---------4-4-4-4---------4-4-4-4-----
drink drank punk,drink drank punk,drink drank punk,drinkdrank punk

e----------/----------/----------/-----------
B----------/----------/----------/-----------
G---------6/---------6/---------6/---------6-
D-6-6-6-6-6/-6-6-6-6-6/-6-6-6-6-6/-6-6-6-6-6-
A-6-6-6-6-4/-6-6-6-6-4/-6-6-6-6-4/-6-6-6-6-4-
E-4-4-4-4--/-4-4-4-4--/-4-4-4-4--/-4-4-4-4---
im so if i can i can more than
cool drink so mutch drink you


e-------------------------------------------------------------
B-------------------------------------------------------------
G---------6-6-6-6---------6-6-6-6---------6-6-6-6---------6---
D-6-6-6-6-6-6-6-6-6-6-6-6-6-6-6-6-6-6-6-6-6-6-6-6-6-6-6-6-6---
A-6-6-6-6-4-4-4-4-6-6-6-6-4-4-4-4-6-6-6-6-4-4-4-4-6-6-6-6-4---
E-4-4-4-4---------4-4-4-4---------4-4-4-4---------4-4-4-4-----
drink drank punk,drink drank punk,drink drank punk,drinkdrank punk

e------------------------------------------
B------------------------------------------
G------------------------------------------
D-4-4-4-4-4-4-6-6-6-6-6-6-8-8-8-8-8-8-8-8--(2x) ANY YOU SHOULD KNOW
A-2-2-2-2-2-2-4-4-4-4-4-4-6-6-6-6-6-6-6-6-- THE REST OF THE SONG WORDS,
E------------------------------------------ ITS PIRFICLY TAB OUT

e----------/----------/----------/-----------
B----------/----------/----------/-----------
G---------6/---------6/---------6/---------6-
D-6-6-6-6-6/-6-6-6-6-6/-6-6-6-6-6/-6-6-6-6-6-
A-6-6-6-6-4/-6-6-6-6-4/-6-6-6-6-4/-6-6-6-6-4-
E-4-4-4-4--/-4-4-4-4--/-4-4-4-4--/-4-4-4-4---

e-------------------------------------------------------------
B-------------------------------------------------------------
G---------6-6-6-6---------6-6-6-6---------6-6-6-6---------6---
D-6-6-6-6-6-6-6-6-6-6-6-6-6-6-6-6-6-6-6-6-6-6-6-6-6-6-6-6-6---
A-6-6-6-6-4-4-4-4-6-6-6-6-4-4-4-4-6-6-6-6-4-4-4-4-6-6-6-6-4---
E-4-4-4-4---------4-4-4-4---------4-4-4-4---------4-4-4-4-----
drink drank punk,drink drank punk,drink drank punk,drinkdrank punk


e------------------------------------------
B------------------------------------------
G------------------------------------------
D-4-4-4-4-4-4-6-6-6-6-6-6-8-8-8-8-8-8-8-8--(2x)
A-2-2-2-2-2-2-4-4-4-4-4-4-6-6-6-6-6-6-6-6--
E------------------------------------------

e-------------------------------------------------------------
B-------------------------------------------------------------
G---------6-6-6-6---------6-6-6-6---------6-6-6-6---------6---
D-6-6-6-6-6-6-6-6-6-6-6-6-6-6-6-6-6-6-6-6-6-6-6-6-6-6-6-6-6---
A-6-6-6-6-4-4-4-4-6-6-6-6-4-4-4-4-6-6-6-6-4-4-4-4-6-6-6-6-4---
E-4-4-4-4---------4-4-4-4---------4-4-4-4---------4-4-4-4-----
drink drank punk,drink drank punk,drink drank punk,drinkdrank punk

e------------------
B------------------
G------------------
D------------------ END
A-6----6-----6----6
E-4----4-----4----4


EMAIL ME IF ANY QUESTIONS....XYOUNGXPUNKX@AOL.COM
PEACE
#---------------------------------PLEASE NOTE----------------------------------#
#This file is the author's own work and represents their interpretation of the #
#song. You may only use this file for private study, scholarship, or research. #
#------------------------------------------------------------------------------#
#------------Created with Taborama Tab Creator-----------------#
#------------------------------------------------------------------------------#

Title: Drink Drank Punk
Artist: Anti-Flag
Album: Die For The Government

Instrument: 6 String Guitar

Tabbed by: Nicholas (think_blink_182@hotmail.com)

Tuning: Standard (E A D G B E)Intro
E|-------------------------------------------------------------||
B|-------------------------------------------------------------||
G|----------6-6-6-6---------6-6-6-6---------6-6-6-6---------6--||
D|--6-6-6-6-6-6-6-6-6-6-6-6-6-6-6-6-6-6-6-6-6-6-6-6-6-6-6-6-6--||
A|--6-6-6-6-4-4-4-4-6-6-6-6-4-4-4-4-6-6-6-6-4-4-4-4-6-6-6-6-4--||
E|--4-4-4-4---------4-4-4-4---------4-4-4-4---------4-4-4-4----||

Verse
E|---------------------------------------------------||
B|------------R-----------R-----------R--------------||
G|----------6-E---------6-E---------6-E---------6~~--||
D|--6-6-6-6-6-S-6-6-6-6-6-S-6-6-6-6-6-S-6-6-6-6-6~~--||
A|--6-6-6-6-4-T-6-6-6-6-4-T-6-6-6-6-4-T-6-6-6-6-4~~--||
E|--4-4-4-4-----4-4-4-4-----4-4-4-4-----4-4-4-4-4~~--||

Chorus
E|-------------------------------------------------------------||
B|-------------------------------------------------------------||
G|----------6-6-6-6---------6-6-6-6---------6-6-6-6---------6--||
D|--6-6-6-6-6-6-6-6-6-6-6-6-6-6-6-6-6-6-6-6-6-6-6-6-6-6-6-6-6--||
A|--6-6-6-6-4-4-4-4-6-6-6-6-4-4-4-4-6-6-6-6-4-4-4-4-6-6-6-6-4--||
E|--4-4-4-4---------4-4-4-4---------4-4-4-4---------4-4-4-4----||

Bridge
E|-----------------------------------||
B|-----------------------------------||
G|--4-4-4-4-6-6-6-6-8-8-8-8-8-8-8-8--||
D|--4-4-4-4-6-6-6-6-8-8-8-8-8-8-8-8--||
A|--2-2-2-2-4-4-4-4-6-6-6-6-6-6-6-6--||
E|-----------------------------------||

Enjoy!