Anti-flag — Got The Numbers

На этой странице Вы можете ознакомиться с 2 версиями подбора аккордов для гитары к песне "Got The Numbers" группы (исполнителя) "Anti-flag".

Anti-Flag:
Got The Numbers
tabbed by intense@westol.com

this is tabbed in normal antiflag tuning (half step down). if you're
regular tuning, just play everything one fret lower than what it says
on this tab

Intro:
Gb-----------------
Db---------5-5-----
Ab-----7-7-----7-7- (7x)
Eb-5-5-------------

then

Gb-----5-5-7-7-9-9-
Db-7-7-------------
Ab-----------------
Eb-----------------

Pre-Verse:
Gb-------------------3-3-5-5-
Db---------------5-5---------
Ab-----------3-3-------------
Eb-5-5-5-5-5-----------------

Verse:
Gb-------------------------
Db---------------5-3-2-0---
Ab-----------3-3---------3-
Eb-5-5-5-5-5---------------

Pre-Chorus Part1:
Gb-------------------------------------------------
Db-------------3-3-3-3-3-3-------------5-5-5-5-5-5-
Ab-------------------------------------------------
Eb-1-1-1-1-1-1-------------3-3-3-3-3-3-------------

Pre-Chorus Part2:
Gb---------------------------------------------
Db---------------------------------------7-7-7-
Ab-3-3-3-5-5-5---------3-3-3-5-5-5-------------
Eb-------------5-3-1-1-------------5-5-5-------

Pre-Chorus Part3:
Gb---------------------------------------------
Db---------------------------------------------
Ab-3-3-3-5-5-5---------3-3-3-5-5-5-------------
Eb-------------5-3-1-1-------------5-5-5-5-5-5-

Chorus:
Gb-------------------------
Db-------------7-7-7-7-7-7-
Ab-3-3-3-3-3-3------------- (3x)
Eb-------------------------

then

Gb------------
Db-10-10-10-9-
Ab------------
Eb------------

Bridge 1:
Gb---
Db-7-
Ab---
Eb---

Bridge 2:
Gb-----------------
Db---------5-5-----
Ab-----7-7-----7-7- (7x)
Eb-5-5-------------

then

Gb-9-9-7-7-5-5-----
Db-------------7-7-
Ab-----------------
Eb-----------------

Pre-Chorus Part4:
Gb---------------------------------------
Db-------------3-3-3-3-3-3-------------5-
Ab---------------------------------------
Eb-1-1-1-1-1-1-------------3-3-3-3-3-3---

Pre-Chorus Part5:
Gb---------------------------------------------
Db---------------------------------------7-7-7-
Ab-3-3-3-5-5-5---------3-3-3-5-5-5---5-5-------
Eb-------------5-3-1-1-------------5-----------

Song Order:
Intro
Pre-Verse
Verse
Pre-Chorus Part1
Pre-Chorus Part2
Pre-Chrous Part3
Chorus
Pre-Verse
Verse
Pre-Chorus Part1
Pre-Chorus Part2
Pre-Chorus Part3
Chorus
Intro
Bridge 1
Bridge 2
Pre-Chorus Part4
Pre-Chours Part2
Pre-Chorus Part5
Pre-Chorus Part2
Pre-Chorus Part3
Chorus
Pre-Verse
Verse
Anti Flag
Got the numbers

Intro:
E|---------------------------------
B|---------------------------------
G|------------4----------4-44-4----
D|-6------66-----6--6----4-44-4-6--
A|-6------66--------6----2-22-2-6--
E|-4------44--------4-----------4-- pick slide
P PP P

Pre-Verse Riff x4:
E|----7-4------7-4---
B|--------4--------4-
G|----------4--------
D|-6-----------------
A|-------------------
E|-------------------

e|-------------------
b|-------------------
g|----------4--4-4-4-
d|-6--6-6-6-4--4-4-4-
a|-6--6-6-6-2--2-2-2-
e|-4--4-4-4----------

Verse Riff x4:
E|------------------
B|------------------
G|---------4--4-4-4-
D|-6666666-4--4-4-4-
A|-6666666-2--2-2-2-
E|-4444444----------
PPPPPPP

Pre-Chorus Riff:
E|-------------------------------
B|-------------------------------
G|-------------------------------
D|-2222222222222222-444444444444-
A|-2222222222222222-444444444444-
E|-0000000000000000-222222222222- pick slide

Chorus:
E|---------------------------------------
B|---------------------------------------
G|-4-44-6-66----------4-44-6-66----------
D|-4-44-6-66-6-66-4-2-4-44-6-66-6-6--6-6-
A|-2-22-4-44-6-66-4-2-2-22-4-44-6-6--6-6-
E|-----------4-44-2-0-----------4-4--4-4-x2

E|-----------------
B|-----------------
G|-4-4-4-4---------
D|-4-4-4-4-6-6-6-6-
A|-2-2-2-2-6-6-6-6-
E|---------4-4-4-4- x3

E|---------
B|---------
G|-4-4-4-4-
D|-4-4-4-4-
A|-2-2-2-2-
E|---------


repeat Pre-Verse Riff x4
repeat Verse Riff x4
repeat Pre-Chorus
repeat Chorus
repeat Intro

Bridge part 1:
E|---
B|---
G|---
D|-6-
A|-6-
E|-4-

Bridge part 2 x4 muting at first but unmuting slowly as you go:
E|----77-44-------77-44----
B|----------44----------44-
G|-------------44----------
D|-66----------------------
A|-------------------------
E|-------------------------

e|-------------------------
b|-------------------------
g|-------------44-44-44-44-
d|-66-66-66-66-44-44-44-44-
a|-66-66-66-66-22-22-22-22-
e|-44-44-44-44-------------

repeat pre-chorus but instead of pick sliding, guitar stops

Then play chorus like this:
E|---------------------------------------
B|---------------------------------------
G|-4-44-6-66----------4-44-6-66----------
D|-4-44-6-66-6-66-4-2-4-44-6-66-6-6--6-6-
A|-2-22-4-44-6-66-4-2-2-22-4-44-6-6--6-6-
E|-----------4-44-2-0-----------4-4--4-4-x4

E|-----------------
B|-----------------
G|-4-4-4-4---------
D|-4-4-4-4-6-6-6-6-
A|-2-2-2-2-6-6-6-6-
E|---------4-4-4-4- x3

E|---------
B|---------
G|-4-4-4-4-
D|-4-4-4-4-
A|-2-2-2-2-
E|---------

repeat pre verse riff
repeat Bridge part 2 without any muting x3

End part:
E|----77-44-----------------
B|----------44--------------
G|-------------44-----------
D|-66----------44--44--6----
A|-------------22--44--6----
E|-----------------22--4----

e|--------------------------
b|--------------------------
g|-------------44-----------
d|-66-66-66-66-44--44--6----
a|-66-66-66-66-22--44--6----
e|-44-44-44-44-----22--4----